  0
SECTION
  2
HEADER
  9
$ACADVER
  1
AC1015
  9
$ACADMAINTVER
 70
     6
  9
$DWGCODEPAGE
  3
ANSI_1254
  9
$INSBASE
 10
0.0
 20
0.0
 30
0.0
  9
$EXTMIN
 10
0.0
 20
0.0
 30
0.0
  9
$EXTMAX
 10
279.4
 20
215.9
 30
0.0
  9
$LIMMIN
 10
0.0
 20
0.0
  9
$LIMMAX
 10
279.4
 20
215.9
  9
$ORTHOMODE
 70
     0
  9
$REGENMODE
 70
     1
  9
$FILLMODE
 70
     1
  9
$QTEXTMODE
 70
     0
  9
$MIRRTEXT
 70
     1
  9
$LTSCALE
 40
1.0
  9
$ATTMODE
 70
     1
  9
$TEXTSIZE
 40
3.5
  9
$TRACEWID
 40
1.0
  9
$TEXTSTYLE
  7
Standard
  9
$CLAYER
  8
0
  9
$CELTYPE
  6
ByLayer
  9
$CECOLOR
 62
   256
  9
$CELTSCALE
 40
1.0
  9
$DISPSILH
 70
     0
  9
$DIMSCALE
 40
1.0
  9
$DIMASZ
 40
3.5
  9
$DIMEXO
 40
1.0
  9
$DIMDLI
 40
3.75
  9
$DIMRND
 40
0.0
  9
$DIMDLE
 40
0.0
  9
$DIMEXE
 40
1.0
  9
$DIMTP
 40
0.0
  9
$DIMTM
 40
0.0
  9
$DIMTXT
 40
3.5
  9
$DIMCEN
 40
2.5
  9
$DIMTSZ
 40
0.0
  9
$DIMTOL
 70
     0
  9
$DIMLIM
 70
     0
  9
$DIMTIH
 70
     1
  9
$DIMTOH
 70
     1
  9
$DIMSE1
 70
     0
  9
$DIMSE2
 70
     0
  9
$DIMTAD
 70
     1
  9
$DIMZIN
 70
     0
  9
$DIMBLK
  1

  9
$DIMASO
 70
     1
  9
$DIMSHO
 70
     1
  9
$DIMPOST
  1

  9
$DIMAPOST
  1

  9
$DIMALT
 70
     0
  9
$DIMALTD
 70
     3
  9
$DIMALTF
 40
0.0393700787
  9
$DIMLFAC
 40
1.0
  9
$DIMTOFL
 70
     1
  9
$DIMTVP
 40
0.0
  9
$DIMTIX
 70
     0
  9
$DIMSOXD
 70
     0
  9
$DIMSAH
 70
     0
  9
$DIMBLK1
  1

  9
$DIMBLK2
  1

  9
$DIMSTYLE
  2
ISO-25
  9
$DIMCLRD
 70
     0
  9
$DIMCLRE
 70
     0
  9
$DIMCLRT
 70
     0
  9
$DIMTFAC
 40
1.0
  9
$DIMGAP
 40
1.524
  9
$DIMJUST
 70
     0
  9
$DIMSD1
 70
     0
  9
$DIMSD2
 70
     0
  9
$DIMTOLJ
 70
     0
  9
$DIMTZIN
 70
     0
  9
$DIMALTZ
 70
     0
  9
$DIMALTTZ
 70
     0
  9
$DIMUPT
 70
     0
  9
$DIMDEC
 70
     2
  9
$DIMTDEC
 70
     2
  9
$DIMALTU
 70
     2
  9
$DIMALTTD
 70
     3
  9
$DIMTXSTY
  7
Standard
  9
$DIMAUNIT
 70
     0
  9
$DIMADEC
 70
     2
  9
$DIMALTRND
 40
0.0
  9
$DIMAZIN
 70
     0
  9
$DIMDSEP
 70
    44
  9
$DIMATFIT
 70
     3
  9
$DIMFRAC
 70
     0
  9
$DIMLDRBLK
  1

  9
$DIMLUNIT
 70
     2
  9
$DIMLWD
 70
    -2
  9
$DIMLWE
 70
    -2
  9
$DIMTMOVE
 70
     0
  9
$LUNITS
 70
     2
  9
$LUPREC
 70
     2
  9
$SKETCHINC
 40
1.0
  9
$FILLETRAD
 40
10.0
  9
$AUNITS
 70
     0
  9
$AUPREC
 70
     2
  9
$MENU
  1
.
  9
$ELEVATION
 40
0.0
  9
$PELEVATION
 40
0.0
  9
$THICKNESS
 40
0.0
  9
$LIMCHECK
 70
     0
  9
$CHAMFERA
 40
0.0
  9
$CHAMFERB
 40
0.0
  9
$CHAMFERC
 40
0.0
  9
$CHAMFERD
 40
0.0
  9
$SKPOLY
 70
     0
  9
$TDCREATE
 40
2458985.718240521
  9
$TDUCREATE
 40
2458985.593240521
  9
$TDUPDATE
 40
2458985.718240787
  9
$TDUUPDATE
 40
2458985.593240787
  9
$TDINDWG
 40
0.0000000116
  9
$TDUSRTIMER
 40
0.0000000116
  9
$USRTIMER
 70
     1
  9
$ANGBASE
 50
0.0
  9
$ANGDIR
 70
     0
  9
$PDMODE
 70
     0
  9
$PDSIZE
 40
-1.0
  9
$PLINEWID
 40
0.0
  9
$SPLFRAME
 70
     0
  9
$SPLINETYPE
 70
     6
  9
$SPLINESEGS
 70
     8
  9
$HANDSEED
  5
E1
  9
$SURFTAB1
 70
     6
  9
$SURFTAB2
 70
     6
  9
$SURFTYPE
 70
     6
  9
$SURFU
 70
     6
  9
$SURFV
 70
     6
  9
$UCSBASE
  2

  9
$UCSNAME
  2

  9
$UCSORG
 10
0.0
 20
0.0
 30
0.0
  9
$UCSXDIR
 10
1.0
 20
0.0
 30
0.0
  9
$UCSYDIR
 10
0.0
 20
1.0
 30
0.0
  9
$UCSORTHOREF
  2

  9
$UCSORTHOVIEW
 70
     0
  9
$UCSORGTOP
 10
0.0
 20
0.0
 30
0.0
  9
$UCSORGBOTTOM
 10
0.0
 20
0.0
 30
0.0
  9
$UCSORGLEFT
 10
0.0
 20
0.0
 30
0.0
  9
$UCSORGRIGHT
 10
0.0
 20
0.0
 30
0.0
  9
$UCSORGFRONT
 10
0.0
 20
0.0
 30
0.0
  9
$UCSORGBACK
 10
0.0
 20
0.0
 30
0.0
  9
$PUCSBASE
  2

  9
$PUCSNAME
  2

  9
$PUCSORG
 10
0.0
 20
0.0
 30
0.0
  9
$PUCSXDIR
 10
1.0
 20
0.0
 30
0.0
  9
$PUCSYDIR
 10
0.0
 20
1.0
 30
0.0
  9
$PUCSORTHOREF
  2

  9
$PUCSORTHOVIEW
 70
     0
  9
$PUCSORGTOP
 10
0.0
 20
0.0
 30
0.0
  9
$PUCSORGBOTTOM
 10
0.0
 20
0.0
 30
0.0
  9
$PUCSORGLEFT
 10
0.0
 20
0.0
 30
0.0
  9
$PUCSORGRIGHT
 10
0.0
 20
0.0
 30
0.0
  9
$PUCSORGFRONT
 10
0.0
 20
0.0
 30
0.0
  9
$PUCSORGBACK
 10
0.0
 20
0.0
 30
0.0
  9
$USERI1
 70
     0
  9
$USERI2
 70
     0
  9
$USERI3
 70
     0
  9
$USERI4
 70
     0
  9
$USERI5
 70
     0
  9
$USERR1
 40
0.0
  9
$USERR2
 40
0.0
  9
$USERR3
 40
0.0
  9
$USERR4
 40
0.0
  9
$USERR5
 40
0.0
  9
$WORLDVIEW
 70
     1
  9
$SHADEDGE
 70
     3
  9
$SHADEDIF
 70
    70
  9
$TILEMODE
 70
     1
  9
$MAXACTVP
 70
    64
  9
$PINSBASE
 10
0.0
 20
0.0
 30
0.0
  9
$PLIMCHECK
 70
     0
  9
$PEXTMIN
 10
1.0000000000E+20
 20
1.0000000000E+20
 30
1.0000000000E+20
  9
$PEXTMAX
 10
-1.0000000000E+20
 20
-1.0000000000E+20
 30
-1.0000000000E+20
  9
$PLIMMIN
 10
0.0
 20
0.0
  9
$PLIMMAX
 10
420.0
 20
297.0
  9
$UNITMODE
 70
     0
  9
$VISRETAIN
 70
     1
  9
$PLINEGEN
 70
     0
  9
$PSLTSCALE
 70
     1
  9
$TREEDEPTH
 70
  3020
  9
$CMLSTYLE
  2
Standard
  9
$CMLJUST
 70
     0
  9
$CMLSCALE
 40
20.0
  9
$PROXYGRAPHICS
 70
     1
  9
$MEASUREMENT
 70
     1
  9
$CELWEIGHT
370
    -1
  9
$ENDCAPS
280
     0
  9
$JOINSTYLE
280
     0
  9
$LWDISPLAY
290
     1
  9
$INSUNITS
 70
     4
  9
$HYPERLINKBASE
  1

  9
$STYLESHEET
  1

  9
$XEDIT
290
     1
  9
$CEPSNTYPE
380
     0
  9
$PSTYLEMODE
290
     1
  9
$FINGERPRINTGUID
  2
{e0ee5f96-a453-4b46-a607-56c60ecf3aaf}
  9
$VERSIONGUID
  2
{FAEB1C32-E019-11D5-929B-00C0DF256EC4}
  9
$EXTNAMES
290
     1
  9
$PSVPSCALE
 40
0.0
  9
$OLESTARTUP
290
     0
  0
ENDSEC
  0
SECTION
  2
CLASSES
  0
CLASS
  1
ACDBDICTIONARYWDFLT
  2
AcDbDictionaryWithDefault
  3
ObjectDBX Classes
 90
        0
280
     0
281
     0
  0
CLASS
  1
VISUALSTYLE
  2
AcDbVisualStyle
  3
ObjectDBX Classes
 90
     4095
280
     0
281
     0
  0
CLASS
  1
MATERIAL
  2
AcDbMaterial
  3
ObjectDBX Classes
 90
     1153
280
     0
281
     0
  0
CLASS
  1
SCALE
  2
AcDbScale
  3
ObjectDBX Classes
 90
     1153
280
     0
281
     0
  0
CLASS
  1
TABLESTYLE
  2
AcDbTableStyle
  3
ObjectDBX Classes
 90
     4095
280
     0
281
     0
  0
CLASS
  1
MLEADERSTYLE
  2
AcDbMLeaderStyle
  3
ACDB_MLEADERSTYLE_CLASS
 90
     4095
280
     0
281
     0
  0
CLASS
  1
SUN
  2
AcDbSun
  3
SCENEOE
 90
     1153
280
     0
281
     0
  0
CLASS
  1
ACDBPLACEHOLDER
  2
AcDbPlaceHolder
  3
ObjectDBX Classes
 90
        0
280
     0
281
     0
  0
CLASS
  1
LAYOUT
  2
AcDbLayout
  3
ObjectDBX Classes
 90
        0
280
     0
281
     0
  0
ENDSEC
  0
SECTION
  2
TABLES
  0
TABLE
  2
VPORT
  5
8
330
0
100
AcDbSymbolTable
 70
     1
  0
VPORT
  5
29
330
8
100
AcDbSymbolTableRecord
100
AcDbViewportTableRecord
  2
*Active
 70
     0
 10
0.0
 20
0.0
 11
1.0
 21
1.0
 12
139.7
 22
107.95
 13
0.0
 23
0.0
 14
10.0
 24
10.0
 15
10.0
 25
10.0
 16
0.0
 26
0.0
 36
1.0
 17
0.0
 27
0.0
 37
0.0
 40
215.9
 41
1.2941176471
 42
50.0
 43
0.0
 44
0.0
 50
0.0
 51
0.0
 71
     0
 72
  2000
 73
     1
 74
     3
 75
     0
 76
     0
 77
     0
 78
     0
281
     0
 65
     1
110
0.0
120
0.0
130
0.0
111
1.0
121
0.0
131
0.0
112
0.0
122
1.0
132
0.0
 79
     0
146
0.0
  0
ENDTAB
  0
TABLE
  2
LTYPE
  5
5
330
0
100
AcDbSymbolTable
 70
     6
  0
LTYPE
  5
14
330
5
100
AcDbSymbolTableRecord
100
AcDbLinetypeTableRecord
  2
ByBlock
 70
     0
  3

 72
    65
 73
     0
 40
0.0
  0
LTYPE
  5
15
330
5
100
AcDbSymbolTableRecord
100
AcDbLinetypeTableRecord
  2
ByLayer
 70
     0
  3

 72
    65
 73
     0
 40
0.0
  0
LTYPE
  5
16
330
5
100
AcDbSymbolTableRecord
100
AcDbLinetypeTableRecord
  2
Continuous
 70
     0
  3
Solid line
 72
    65
 73
     0
 40
0.0
  0
LTYPE
  5
6E
330
5
100
AcDbSymbolTableRecord
100
AcDbLinetypeTableRecord
  2
HIDDEN
 70
     0
  3
Hidden __ __ __ __ __ __ __ __ __ __ __ __ __ __
 72
    65
 73
     2
 40
1.905
 49
1.27
 74
     0
 49
-0.635
 74
     0
  0
LTYPE
  5
6F
330
5
100
AcDbSymbolTableRecord
100
AcDbLinetypeTableRecord
  2
PHANTOM
 70
     0
  3
Phantom ______  __  __  ______  __  __  ______
 72
    65
 73
     6
 40
12.7
 49
6.35
 74
     0
 49
-1.27
 74
     0
 49
1.27
 74
     0
 49
-1.27
 74
     0
 49
1.27
 74
     0
 49
-1.27
 74
     0
  0
LTYPE
  5
70
330
5
100
AcDbSymbolTableRecord
100
AcDbLinetypeTableRecord
  2
CENTER
 70
     0
  3
Center ____ _ ____ _ ____ _ ____ _ ____ _ ____
 72
    65
 73
     4
 40
10.16
 49
6.35
 74
     0
 49
-1.27
 74
     0
 49
1.27
 74
     0
 49
-1.27
 74
     0
  0
LTYPE
  5
71
330
5
100
AcDbSymbolTableRecord
100
AcDbLinetypeTableRecord
  2
CENTERX2
 70
     0
  3
Center (2x) ________  __  ________  __  _____
 72
    65
 73
     4
 40
20.32
 49
12.7
 74
     0
 49
-2.54
 74
     0
 49
2.54
 74
     0
 49
-2.54
 74
     0
  0
LTYPE
  5
72
330
5
100
AcDbSymbolTableRecord
100
AcDbLinetypeTableRecord
  2
DOT2
 70
     0
  3
Dot (.5x) ........................................
 72
    65
 73
     2
 40
0.635
 49
0.0
 74
     0
 49
-0.635
 74
     0
  0
ENDTAB
  0
TABLE
  2
LAYER
  5
2
330
0
100
AcDbSymbolTable
 70
    17
  0
LAYER
  5
10
330
2
100
AcDbSymbolTableRecord
100
AcDbLayerTableRecord
  2
0
 70
     0
 62
     7
  6
Continuous
370
    -3
390
F
  0
LAYER
  5
73
330
2
100
AcDbSymbolTableRecord
100
AcDbLayerTableRecord
  2
FORMAT
 70
     0
 62
     7
  6
Continuous
370
    -3
390
F
  0
LAYER
  5
74
330
2
100
AcDbSymbolTableRecord
100
AcDbLayerTableRecord
  2
YARDIMCI_GEOMETRI
 70
     0
 62
    -6
  6
Continuous
290
     0
370
    -3
390
F
  0
LAYER
  5
75
330
2
100
AcDbSymbolTableRecord
100
AcDbLayerTableRecord
  2
SAYFA_CERCEVESI
 70
     0
 62
     7
  6
Continuous
370
    25
390
F
  0
LAYER
  5
76
330
2
100
AcDbSymbolTableRecord
100
AcDbLayerTableRecord
  2
ANTET
 70
     0
 62
     7
  6
Continuous
370
    -3
390
F
  0
LAYER
  5
77
330
2
100
AcDbSymbolTableRecord
100
AcDbLayerTableRecord
  2
OLCU
 70
     0
 62
   150
  6
Continuous
370
    -3
390
F
  0
LAYER
  5
78
330
2
100
AcDbSymbolTableRecord
100
AcDbLayerTableRecord
  2
METIN
 70
     0
 62
    96
  6
Continuous
370
    -3
390
F
  0
LAYER
  5
79
330
2
100
AcDbSymbolTableRecord
100
AcDbLayerTableRecord
  2
BALON
 70
     0
 62
     5
  6
Continuous
370
    -3
390
F
  0
LAYER
  5
7A
330
2
100
AcDbSymbolTableRecord
100
AcDbLayerTableRecord
  2
VURGU
 70
     0
 62
     7
  6
Continuous
370
    -3
390
F
  0
LAYER
  5
7B
330
2
100
AcDbSymbolTableRecord
100
AcDbLayerTableRecord
  2
SILIK
 70
     0
 62
     7
  6
Continuous
370
    -3
390
F
  0
LAYER
  5
7C
330
2
100
AcDbSymbolTableRecord
100
AcDbLayerTableRecord
  2
MODEL
 70
     0
 62
     7
  6
Continuous
370
    -3
390
F
  0
LAYER
  5
7D
330
2
100
AcDbSymbolTableRecord
100
AcDbLayerTableRecord
  2
DETAYLANDıRMA
 70
     0
 62
   190
  6
Continuous
370
    -3
390
F
  0
LAYER
  5
7E
330
2
100
AcDbSymbolTableRecord
100
AcDbLayerTableRecord
  2
TOLERANS
 70
     0
 62
   230
  6
Continuous
370
    -3
390
F
  0
LAYER
  5
7F
330
2
100
AcDbSymbolTableRecord
100
AcDbLayerTableRecord
  2
MERKEZ_CIZGILERI
 70
     0
 62
    30
  6
Continuous
370
    -3
390
F
  0
LAYER
  5
80
330
2
100
AcDbSymbolTableRecord
100
AcDbLayerTableRecord
  2
KESIT-DETAY_CIZGILERI
 70
     0
 62
     7
  6
Continuous
370
    -3
390
F
  0
LAYER
  5
81
330
2
100
AcDbSymbolTableRecord
100
AcDbLayerTableRecord
  2
\U+041E\U+0421\U+0415\U+0412\U+042B\U+0415
 70
     0
 62
     7
  6
Continuous
370
    -3
390
F
  0
LAYER
  5
82
330
2
100
AcDbSymbolTableRecord
100
AcDbLayerTableRecord
  2
\U+0412\U+041E\U+0414\U+042F\U+041D\U+042B\U+0415_\U+0417\U+041D\U+0410\U+041A\U+0418
 70
     0
 62
    11
  6
Continuous
370
    -3
390
F
  0
ENDTAB
  0
TABLE
  2
STYLE
  5
3
330
0
100
AcDbSymbolTable
 70
     1
  0
STYLE
  5
11
330
3
100
AcDbSymbolTableRecord
100
AcDbTextStyleTableRecord
  2
Standard
 70
     0
 40
0.0
 41
1.0
 50
0.0
 71
     0
 42
3.5
  3
txt
  4

  0
ENDTAB
  0
TABLE
  2
VIEW
  5
6
330
0
100
AcDbSymbolTable
 70
     0
  0
ENDTAB
  0
TABLE
  2
UCS
  5
7
330
0
100
AcDbSymbolTable
 70
     0
  0
ENDTAB
  0
TABLE
  2
APPID
  5
9
330
0
100
AcDbSymbolTable
 70
     1
  0
APPID
  5
12
330
9
100
AcDbSymbolTableRecord
100
AcDbRegAppTableRecord
  2
ACAD
 70
     0
  0
ENDTAB
  0
TABLE
  2
DIMSTYLE
  5
A
330
0
100
AcDbSymbolTable
 70
     1
100
AcDbDimStyleTable
  0
DIMSTYLE
105
27
330
A
100
AcDbSymbolTableRecord
100
AcDbDimStyleTableRecord
  2
ISO-25
 70
     0
 41
2.5
 42
0.625
 43
3.75
 44
1.25
 73
     0
 74
     0
 77
     1
 78
     8
140
2.5
141
2.5
143
0.0393700787
147
0.625
171
     3
172
     1
178
     0
271
     2
272
     2
274
     3
278
    44
283
     0
284
     8
340
11
  0
ENDTAB
  0
TABLE
  2
BLOCK_RECORD
  5
1
330
0
100
AcDbSymbolTable
 70
     3
  0
BLOCK_RECORD
  5
1F
330
1
100
AcDbSymbolTableRecord
100
AcDbBlockTableRecord
  2
*Model_Space
340
22
  0
BLOCK_RECORD
  5
1B
330
1
100
AcDbSymbolTableRecord
100
AcDbBlockTableRecord
  2
*Paper_Space
340
1E
  0
BLOCK_RECORD
  5
23
330
1
100
AcDbSymbolTableRecord
100
AcDbBlockTableRecord
  2
*Paper_Space0
340
26
  0
BLOCK_RECORD
  5
B1
330
1
100
AcDbSymbolTableRecord
100
AcDbBlockTableRecord
  2
SW_CENTERMARKSYMBOL_0
340
0
102
{BLKREFS
331
BC
102
}
  0
BLOCK_RECORD
  5
C7
330
1
100
AcDbSymbolTableRecord
100
AcDbBlockTableRecord
  2
SW_CENTERMARKSYMBOL_1
340
0
102
{BLKREFS
331
D2
102
}
  0
ENDTAB
  0
ENDSEC
  0
SECTION
  2
BLOCKS
  0
BLOCK
  5
20
330
1F
100
AcDbEntity
  8
0
100
AcDbBlockBegin
  2
*Model_Space
 70
     0
 10
0.0
 20
0.0
 30
0.0
  3
*Model_Space
  1

  0
ENDBLK
  5
21
330
1F
100
AcDbEntity
  8
0
100
AcDbBlockEnd
  0
BLOCK
  5
1C
330
1B
100
AcDbEntity
 67
     1
  8
0
100
AcDbBlockBegin
  2
*Paper_Space
 70
     0
 10
0.0
 20
0.0
 30
0.0
  3
*Paper_Space
  1

  0
ENDBLK
  5
1D
330
1B
100
AcDbEntity
 67
     1
  8
0
100
AcDbBlockEnd
  0
BLOCK
  5
24
330
23
100
AcDbEntity
  8
0
100
AcDbBlockBegin
  2
*Paper_Space0
 70
     0
 10
0.0
 20
0.0
 30
0.0
  3
*Paper_Space0
  1

  0
ENDBLK
  5
25
330
23
100
AcDbEntity
  8
0
100
AcDbBlockEnd
  0
BLOCK
  5
B2
330
B1
100
AcDbEntity
  8
0
100
AcDbBlockBegin
  2
SW_CENTERMARKSYMBOL_0
 70
     0
 10
0.0
 20
0.0
 30
0.0
  3
SW_CENTERMARKSYMBOL_0
  1

  0
LINE
  5
B4
330
B1
100
AcDbEntity
  8
FORMAT
 62
     0
100
AcDbLine
 10
0.0
 20
0.0
 30
0.0
 11
0.0
 21
2.5
 31
0.0
  0
LINE
  5
B5
330
B1
100
AcDbEntity
  8
FORMAT
 62
     0
100
AcDbLine
 10
0.0
 20
0.0
 30
0.0
 11
-2.5
 21
0.0
 31
0.0
  0
LINE
  5
B6
330
B1
100
AcDbEntity
  8
FORMAT
 62
     0
100
AcDbLine
 10
0.0
 20
0.0
 30
0.0
 11
0.0
 21
-2.5
 31
0.0
  0
LINE
  5
B7
330
B1
100
AcDbEntity
  8
FORMAT
 62
     0
100
AcDbLine
 10
0.0
 20
0.0
 30
0.0
 11
2.5
 21
0.0
 31
0.0
  0
LINE
  5
B8
330
B1
100
AcDbEntity
  8
FORMAT
 62
     0
100
AcDbLine
 10
0.0
 20
5.0
 30
0.0
 11
0.0
 21
160.0
 31
0.0
  0
LINE
  5
B9
330
B1
100
AcDbEntity
  8
FORMAT
 62
     0
100
AcDbLine
 10
-5.0
 20
0.0
 30
0.0
 11
-160.0
 21
0.0
 31
0.0
  0
LINE
  5
BA
330
B1
100
AcDbEntity
  8
FORMAT
 62
     0
100
AcDbLine
 10
0.0
 20
-5.0
 30
0.0
 11
0.0
 21
-160.0
 31
0.0
  0
LINE
  5
BB
330
B1
100
AcDbEntity
  8
FORMAT
 62
     0
100
AcDbLine
 10
5.0
 20
0.0
 30
0.0
 11
160.0
 21
0.0
 31
0.0
  0
ENDBLK
  5
B3
330
B1
100
AcDbEntity
  8
0
100
AcDbBlockEnd
  0
BLOCK
  5
C8
330
C7
100
AcDbEntity
  8
0
100
AcDbBlockBegin
  2
SW_CENTERMARKSYMBOL_1
 70
     0
 10
0.0
 20
0.0
 30
0.0
  3
SW_CENTERMARKSYMBOL_1
  1

  0
LINE
  5
CA
330
C7
100
AcDbEntity
  8
FORMAT
 62
     0
100
AcDbLine
 10
0.0
 20
0.0
 30
0.0
 11
0.0
 21
2.5
 31
0.0
  0
LINE
  5
CB
330
C7
100
AcDbEntity
  8
FORMAT
 62
     0
100
AcDbLine
 10
0.0
 20
0.0
 30
0.0
 11
-2.5
 21
0.0
 31
0.0
  0
LINE
  5
CC
330
C7
100
AcDbEntity
  8
FORMAT
 62
     0
100
AcDbLine
 10
0.0
 20
0.0
 30
0.0
 11
0.0
 21
-2.5
 31
0.0
  0
LINE
  5
CD
330
C7
100
AcDbEntity
  8
FORMAT
 62
     0
100
AcDbLine
 10
0.0
 20
0.0
 30
0.0
 11
2.5
 21
0.0
 31
0.0
  0
LINE
  5
CE
330
C7
100
AcDbEntity
  8
FORMAT
 62
     0
100
AcDbLine
 10
0.0
 20
5.0
 30
0.0
 11
0.0
 21
160.0
 31
0.0
  0
LINE
  5
CF
330
C7
100
AcDbEntity
  8
FORMAT
 62
     0
100
AcDbLine
 10
-5.0
 20
0.0
 30
0.0
 11
-160.0
 21
0.0
 31
0.0
  0
LINE
  5
D0
330
C7
100
AcDbEntity
  8
FORMAT
 62
     0
100
AcDbLine
 10
0.0
 20
-5.0
 30
0.0
 11
0.0
 21
-160.0
 31
0.0
  0
LINE
  5
D1
330
C7
100
AcDbEntity
  8
FORMAT
 62
     0
100
AcDbLine
 10
5.0
 20
0.0
 30
0.0
 11
160.0
 21
0.0
 31
0.0
  0
ENDBLK
  5
C9
330
C7
100
AcDbEntity
  8
0
100
AcDbBlockEnd
  0
ENDSEC
  0
SECTION
  2
ENTITIES
  0
LINE
  5
83
330
1F
100
AcDbEntity
  8
0
  6
Continuous
 62
     7
370
    25
100
AcDbLine
 10
-55.5375832858
 20
59.5049009069
 30
0.0
 11
-55.5375832858
 21
-124.2564573542
 31
0.0
  0
LINE
  5
84
330
1F
100
AcDbEntity
  8
0
  6
Continuous
 62
     7
370
    25
100
AcDbLine
 10
259.4624143301
 20
-124.2564573542
 30
0.0
 11
259.4624143301
 21
59.5049009069
 31
0.0
  0
ARC
  5
85
330
1F
100
AcDbEntity
  8
0
  6
Continuous
 62
     7
370
    25
100
AcDbCircle
 10
259.4624155222
 20
59.504906572
 30
0.0
 40
315.0
100
AcDbArc
 50
135.0
 51
180.0
  0
LINE
  5
86
330
1F
100
AcDbEntity
  8
0
  6
Continuous
 62
     7
370
    25
100
AcDbLine
 10
171.5930979906
 20
417.1128616079
 30
0.0
 11
36.7237758098
 21
282.2435543283
 31
0.0
  0
LINE
  5
87
330
1F
100
AcDbEntity
  8
0
  6
Continuous
 62
     7
370
    25
100
AcDbLine
 10
259.4624143301
 20
59.5049009069
 30
0.0
 11
394.3317216096
 21
194.3742379888
 31
0.0
  0
LINE
  5
88
330
1F
100
AcDbEntity
  8
0
  6
Continuous
 62
     7
370
    25
100
AcDbLine
 10
101.9624155222
 20
-124.2564573542
 30
0.0
 11
259.4624143301
 21
-124.2564573542
 31
0.0
  0
LINE
  5
89
330
1F
100
AcDbEntity
  8
0
  6
Continuous
 62
     7
370
    25
100
AcDbLine
 10
-55.5375832858
 20
-124.2564573542
 30
0.0
 11
101.9624155222
 21
-124.2564573542
 31
0.0
  0
LWPOLYLINE
  5
8A
330
1F
100
AcDbEntity
  8
0
  6
Continuous
 62
     7
370
    25
100
AcDbPolyline
 90
       35
 70
   128
 43
0.0
 10
282.9624098001
 20
305.7435497983
 10
288.2217746435
 20
300.484184955
 10
293.4693824707
 20
295.2365622266
 10
298.6935507713
 20
290.012393926
 10
303.8826268373
 20
284.8233327611
 10
309.0250175653
 20
279.6809420331
 10
314.1092490612
 20
274.5967254385
 10
319.12396664
 20
269.5819780572
 10
324.0580093322
 20
264.6479353651
 10
328.9003502784
 20
259.8055944189
 10
333.6401861368
 20
255.0657734617
 10
338.2669370828
 20
250.4390225156
 10
342.770291513
 20
245.9356829866
 10
347.1401762424
 20
241.5657684549
 10
351.3668608127
 20
237.3390838846
 10
355.4409127889
 20
233.2650468095
 10
359.3532424627
 20
229.3527171358
 10
363.0951028524
 20
225.6108567461
 10
366.6581493078
 20
222.0478102907
 10
370.0344544111
 20
218.6715051874
 10
373.2164483724
 20
215.489511226
 10
376.1970680414
 20
212.5088915571
 10
378.9696376977
 20
209.7363219007
 10
381.5279882608
 20
207.1779713377
 10
383.8663976846
 20
204.8395619138
 10
385.9796505628
 20
202.7263090356
 10
387.8630083261
 20
200.8429512723
 10
389.5123284517
 20
199.1936311468
 10
390.9238558469
 20
197.7821037515
 10
392.0944910703
 20
196.6114685281
 10
393.0216413198
 20
195.6843182786
 10
393.7031608282
 20
195.0027987703
 10
394.1376190839
 20
194.5683405145
 10
394.3239730058
 20
194.3819865926
 10
394.3317216096
 20
194.3742379888
  0
LWPOLYLINE
  5
8B
330
1F
100
AcDbEntity
  8
0
  6
Continuous
 62
     7
370
    25
100
AcDbPolyline
 90
       35
 70
   128
 43
0.0
 10
171.5930979906
 20
417.1128616079
 10
171.6008614955
 20
417.1051130041
 10
171.787222868
 20
416.9187292799
 10
172.221658772
 20
416.4842710241
 10
172.9032006321
 20
415.8027515157
 10
173.8303285299
 20
414.8756608709
 10
175.0009712039
 20
413.7049660429
 10
176.4125135003
 20
412.2934684499
 10
178.0618187247
 20
410.6441483243
 10
179.9451913891
 20
408.7607607587
 10
182.0584368167
 20
406.6475376829
 10
184.3968462406
 20
404.309128259
 10
186.9551819025
 20
401.750777696
 10
189.7277590094
 20
398.9782080396
 10
192.7083712278
 20
395.9975585683
 10
195.8903800903
 20
392.815564607
 10
199.266677743
 20
389.4392595037
 10
202.829731649
 20
385.8762130483
 10
206.5715920387
 20
382.1343526586
 10
210.4839142619
 20
378.2220229848
 10
214.5579662381
 20
374.1479859098
 10
218.7846508084
 20
369.9213013395
 10
223.1545429884
 20
365.5514166101
 10
227.6578825174
 20
361.0480770811
 10
232.2846483646
 20
356.421326135
 10
237.0244693218
 20
351.6814753755
 10
241.866810268
 20
346.8391344293
 10
246.8008529602
 20
341.9050917371
 10
251.8155854402
 20
336.8903741582
 10
256.8998169361
 20
331.8061277612
 10
262.0422076641
 20
326.6637370332
 10
267.2312688289
 20
321.4746758684
 10
272.4554520307
 20
316.2505075677
 10
277.7030598579
 20
311.0028848394
 10
282.9624098001
 20
305.7435497983
  0
LINE
  5
8C
330
1F
100
AcDbEntity
  8
0
  6
Continuous
 62
     1
370
    25
100
AcDbLine
 10
-55.5375832858
 20
59.5049009069
 30
0.0
 11
259.4624143301
 21
59.5049009069
 31
0.0
  0
LWPOLYLINE
  5
8D
330
1F
100
AcDbEntity
  8
0
  6
Continuous
 62
     1
370
    25
100
AcDbPolyline
 90
       69
 70
   128
 43
0.0
 10
36.7237758098
 20
282.2435543283
 10
36.7548447309
 20
282.212470506
 10
37.0032843409
 20
281.9640383466
 10
37.499612218
 20
281.4677104696
 10
38.242710775
 20
280.7246193632
 10
39.2309334336
 20
279.7364041551
 10
40.4620673714
 20
278.5052702173
 10
41.9333670495
 20
277.0339593633
 10
43.6415542124
 20
275.325779651
 10
45.5828104375
 20
273.3845159753
 10
47.7528106628
 20
271.2145194753
 10
50.1467045603
 20
268.8206181272
 10
52.7591575144
 20
266.208176349
 10
55.5843394456
 20
263.3829757913
 10
58.6159434376
 20
260.3513643487
 10
61.8472043632
 20
257.1201071485
 10
65.2709175108
 20
253.6964163526
 10
68.8794348596
 20
250.0878915533
 10
72.6647116451
 20
246.3026091798
 10
76.6182970462
 20
242.3490330919
 10
80.7313714383
 20
238.2359549745
 10
84.994755706
 20
233.972553943
 10
89.3989373205
 20
229.5683965429
 10
93.9340889661
 20
225.0332281335
 10
98.590090193
 20
220.3772411092
 10
103.3565519817
 20
215.6107768758
 10
108.2228385119
 20
210.7444748624
 10
113.1780911444
 20
205.789242719
 10
118.2112526355
 20
200.7560775026
 10
123.3110930977
 20
195.6562146886
 10
128.4662317691
 20
190.501098369
 10
133.6651649533
 20
185.3021726354
 10
138.8962920962
 20
180.0710305913
 10
144.1479418634
 20
174.8193845495
 10
149.4083944915
 20
169.5589170202
 10
154.6659115909
 20
164.3013999208
 10
159.9087622223
 20
159.058545564
 10
165.1252489744
 20
153.8420662626
 10
170.3037303148
 20
148.6635849222
 10
175.4326503931
 20
143.5346648439
 10
180.5005651174
 20
138.4667501195
 10
185.4961645065
 20
133.4711656316
 10
190.4083024917
 20
128.5590276464
 10
195.226019269
 20
123.7413034185
 10
199.9385711012
 20
119.0287515863
 10
204.5354303179
 20
114.4318923696
 10
209.0063374696
 20
109.9609777673
 10
213.3413311301
 20
105.6259915575
 10
217.5307329951
 20
101.4365896925
 10
221.5651851354
 20
97.4021301015
 10
225.4356947003
 20
93.5316279872
 10
229.1336339174
 20
89.8336962207
 10
232.6507251916
 20
86.3166049465
 10
235.9791379629
 20
82.9881772741
 10
239.1114514528
 20
79.8558786853
 10
242.0406472145
 20
76.9266680225
 10
244.7602283416
 20
74.2070868953
 10
247.2641002594
 20
71.7032149776
 10
249.5466899334
 20
69.4206402048
 10
251.6028862653
 20
67.3644289716
 10
253.4281145988
 20
65.5392006382
 10
255.0183069168
 20
63.9490232214
 10
256.3699018417
 20
62.5974282964
 10
257.479889339
 20
61.4874407991
 10
258.345795816
 20
60.6215343221
 10
258.9656692205
 20
60.0016460165
 10
259.338168448
 20
59.6291616901
 10
259.4624143301
 20
59.5049009069
 10
259.4624143301
 20
59.5049009069
  0
LINE
  5
8E
330
1F
100
AcDbEntity
  8
0
  6
Continuous
 62
     7
370
    25
100
AcDbLine
 10
-612.3275911019
 20
305.7435497983
 30
0.0
 11
-612.3275911019
 21
170.8742127164
 31
0.0
  0
LINE
  5
8F
330
1F
100
AcDbEntity
  8
0
  6
Continuous
 62
     7
370
    25
100
AcDbLine
 10
-297.3275934861
 20
170.8742127164
 30
0.0
 11
-297.3275934861
 21
305.7435497983
 31
0.0
  0
LINE
  5
90
330
1F
100
AcDbEntity
  8
0
  6
Continuous
 62
     7
370
    25
100
AcDbLine
 10
-612.3275911019
 20
170.8742127164
 30
0.0
 11
-612.3275911019
 21
59.5049009069
 31
0.0
  0
LINE
  5
91
330
1F
100
AcDbEntity
  8
0
  6
Continuous
 62
     7
370
    25
100
AcDbLine
 10
-297.3275934861
 20
59.5049009069
 30
0.0
 11
-297.3275934861
 21
170.8742127164
 31
0.0
  0
LINE
  5
92
330
1F
100
AcDbEntity
  8
0
  6
Continuous
 62
     7
370
    25
100
AcDbLine
 10
-612.3275911019
 20
59.5049009069
 30
0.0
 11
-612.3275911019
 21
-124.2564573542
 31
0.0
  0
LINE
  5
93
330
1F
100
AcDbEntity
  8
0
  6
Continuous
 62
     7
370
    25
100
AcDbLine
 10
-297.3275934861
 20
-124.2564573542
 30
0.0
 11
-297.3275934861
 21
59.5049009069
 31
0.0
  0
LWPOLYLINE
  5
94
330
1F
100
AcDbEntity
  8
0
  6
Continuous
 62
     7
370
    25
100
AcDbPolyline
 90
      134
 70
   128
 43
0.0
 10
-612.3275911019
 20
305.7435497983
 10
-612.1518766091
 20
300.484184955
 10
-611.6250907586
 20
295.2365622266
 10
-610.7484405444
 20
290.012393926
 10
-609.5238780186
 20
284.8233327611
 10
-607.9541151927
 20
279.6809420331
 10
-606.0426687405
 20
274.5967254385
 10
-603.7938152955
 20
269.5819780572
 10
-601.2125467465
 20
264.6479353651
 10
-598.304629843
 20
259.8055944189
 10
-595.0765763924
 20
255.0657734617
 10
-591.5355538533
 20
250.4390225156
 10
-587.6895045445
 20
245.9356829866
 10
-583.5469668315
 20
241.5657684549
 10
-579.1172241376
 20
237.3390838846
 10
-574.4101335809
 20
233.2650468095
 10
-569.4362079308
 20
229.3527171358
 10
-564.2065485523
 20
225.6108567461
 10
-558.732815604
 20
222.0478102907
 10
-553.0272354887
 20
218.6715051874
 10
-547.102533798
 20
215.489511226
 10
-540.971927862
 20
212.5088915571
 10
-534.6490969465
 20
209.7363219007
 10
-528.1481599019
 20
207.1779713377
 10
-521.4836155579
 20
204.8395619138
 10
-514.6703315482
 20
202.7263090356
 10
-507.7235182331
 20
200.8429512723
 10
-500.6586690948
 20
199.1936311468
 10
-493.4915570126
 20
197.7821037515
 10
-486.238167207
 20
196.6114685281
 10
-478.9146916524
 20
195.6843182786
 10
-471.5374657468
 20
195.0027987703
 10
-464.1229552732
 20
194.5683405145
 10
-456.687702616
 20
194.3819865926
 10
-449.2482990541
 20
194.4441244348
 10
-441.8213456453
 20
194.7546050294
 10
-434.4234136448
 20
195.3127429231
 10
-427.0710112111
 20
196.1173162206
 10
-419.7805454538
 20
197.166477178
 10
-412.5682828532
 20
198.4579310163
 10
-405.4503185258
 20
199.9887869104
 10
-398.4425296591
 20
201.7556175931
 10
-391.5605624721
 20
203.754489158
 10
-384.8197688864
 20
205.9809312566
 10
-378.2351841734
 20
208.4299967035
 10
-371.8215157793
 20
211.0962018713
 10
-365.5930613683
 20
213.9735862955
 10
-359.5637237237
 20
217.0557722791
 10
-353.7469585941
 20
220.3358158811
 10
-348.155744891
 20
223.8064751371
 10
-342.8025548861
 20
227.4599418386
 10
-337.6993393109
 20
231.2881097539
 10
-332.8574826525
 20
235.2824256166
 10
-328.287780802
 20
239.4339487299
 10
-324.0004485057
 20
243.7334105714
 10
-320.0050448582
 20
248.1712743982
 10
-316.3104807542
 20
252.7376160368
 10
-312.9249965356
 20
257.4222132905
 10
-309.8561619923
 20
262.2146353467
 10
-307.1108018563
 20
267.1041831716
 10
-304.695070307
 20
272.0799491151
 10
-302.6143317626
 20
277.1308467134
 10
-300.8732353852
 20
282.2455808862
 10
-299.4756852792
 20
287.4127671464
 10
-298.424780886
 20
292.620842193
 10
-297.7228765891
 20
297.8581831201
 10
-297.3715221093
 20
303.1131372198
 10
-297.3715221093
 20
308.3739623769
 10
-297.7228765891
 20
313.6289164766
 10
-298.424780886
 20
318.8662574037
 10
-299.4756852792
 20
324.0743324502
 10
-300.8732353852
 20
329.2414889081
 10
-302.6143317626
 20
334.356223081
 10
-304.695070307
 20
339.4071206792
 10
-307.1108018563
 20
344.3828866228
 10
-309.8561619923
 20
349.2724642499
 10
-312.9249965356
 20
354.0648863061
 10
-316.3104807542
 20
358.7494835599
 10
-320.0050448582
 20
363.3157953962
 10
-324.0004485057
 20
367.7536592229
 10
-328.287780802
 20
372.0531508668
 10
-332.8574826525
 20
376.2047037824
 10
-337.6993393109
 20
380.1989898428
 10
-342.8025548861
 20
384.0271577581
 10
-348.155744891
 20
387.6806244596
 10
-353.7469585941
 20
391.1512837156
 10
-359.5637237237
 20
394.4313273176
 10
-365.5930613683
 20
397.5134834989
 10
-371.8215157793
 20
400.3908977254
 10
-378.2351841734
 20
403.0570730909
 10
-384.8197688864
 20
405.5061683401
 10
-391.5605624721
 20
407.7325806364
 10
-398.4425296591
 20
409.7314820035
 10
-405.4503185258
 20
411.498282884
 10
-412.5682828532
 20
413.0291685804
 10
-419.7805454538
 20
414.3206224187
 10
-427.0710112111
 20
415.3697833761
 10
-434.4234136448
 20
416.1743268713
 10
-441.8213456453
 20
416.7324647649
 10
-449.2482990541
 20
417.0429453596
 10
-456.687702616
 20
417.1051130041
 10
-464.1229552732
 20
416.9187292799
 10
-471.5374657468
 20
416.4842710241
 10
-478.9146916524
 20
415.8027515157
 10
-486.238167207
 20
414.8756608709
 10
-493.4915570126
 20
413.7049660429
 10
-500.6586690948
 20
412.2934684499
 10
-507.7235182331
 20
410.6441483243
 10
-514.6703315482
 20
408.7607607587
 10
-521.4836155579
 20
406.6475376829
 10
-528.1481599019
 20
404.309128259
 10
-534.6490969465
 20
401.750777696
 10
-540.971927862
 20
398.9782080396
 10
-547.102533798
 20
395.9975585683
 10
-553.0272354887
 20
392.815564607
 10
-558.732815604
 20
389.4392595037
 10
-564.2065485523
 20
385.8762130483
 10
-569.4362079308
 20
382.1343526586
 10
-574.4101335809
 20
378.2220229848
 10
-579.1172241376
 20
374.1479859098
 10
-583.5469668315
 20
369.9213013395
 10
-587.6895045445
 20
365.5514166101
 10
-591.5355538533
 20
361.0480770811
 10
-595.0765763924
 20
356.421326135
 10
-598.304629843
 20
351.6814753755
 10
-601.2125467465
 20
346.8391344293
 10
-603.7938152955
 20
341.9050917371
 10
-606.0426687405
 20
336.8903741582
 10
-607.9541151927
 20
331.8061277612
 10
-609.5238780186
 20
326.6637370332
 10
-610.7484405444
 20
321.4746758684
 10
-611.6250907586
 20
316.2505075677
 10
-612.1518766091
 20
311.0028848394
 10
-612.3275911019
 20
305.7435497983
  0
LWPOLYLINE
  5
95
330
1F
100
AcDbEntity
  8
0
  6
Continuous
 62
     7
370
    25
100
AcDbPolyline
 90
      121
 70
   128
 43
0.0
 10
-583.7275987075
 20
305.7435497983
 10
-583.5509454415
 20
310.5137691244
 10
-583.0214624808
 20
315.2709052309
 10
-582.1406250403
 20
320.0019345029
 10
-580.9108173058
 20
324.693863128
 10
-579.3354292915
 20
329.3338761076
 10
-577.4187748835
 20
333.9092180475
 10
-575.1661067412
 20
338.4073719724
 10
-572.5836013959
 20
342.8159997209
 10
-569.6783368991
 20
347.1230015501
 10
-566.4582704709
 20
351.3165757402
 10
-562.9322310493
 20
355.3852483972
 10
-559.1098820374
 20
359.3178436502
 10
-555.0017064021
 20
363.1036326631
 10
-550.6189619706
 20
366.7321548208
 10
-545.9736590789
 20
370.1935455545
 10
-541.0785307691
 20
373.4782681211
 10
-535.9469880865
 20
376.5773520216
 10
-530.5931126282
 20
379.4822439893
 10
-525.031567137
 20
382.1850762113
 10
-519.2775955007
 20
384.6783385023
 10
-513.3469668732
 20
386.9552955373
 10
-507.2559458719
 20
389.0096292242
 10
-501.0212217973
 20
390.8357367261
 10
-494.659882556
 20
392.4286112531
 10
-488.1893662319
 20
393.783901666
 10
-481.6274089322
 20
394.8978528722
 10
-474.9919944958
 20
395.7674250349
 10
-468.3013116524
 20
396.3902935728
 10
-461.5736972124
 20
396.7646703466
 10
-454.827592294
 20
396.889601682
 10
-448.0814873756
 20
396.7646703466
 10
-441.3538729356
 20
396.3902935728
 10
-434.6631900922
 20
395.7674250349
 10
-428.0277756558
 20
394.8978528722
 10
-421.4658183561
 20
393.783901666
 10
-414.995302032
 20
392.4286112531
 10
-408.6339627908
 20
390.8357367261
 10
-402.3992387162
 20
389.0096292242
 10
-396.3082177148
 20
386.9552955373
 10
-390.3775890873
 20
384.6783385023
 10
-384.623617451
 20
382.1850762113
 10
-379.0620719598
 20
379.4822439893
 10
-373.7081965015
 20
376.5773520216
 10
-368.5766538189
 20
373.4782681211
 10
-363.6815255091
 20
370.1935455545
 10
-359.0362226174
 20
366.7321548208
 10
-354.6534781859
 20
363.1036326631
 10
-350.5453025506
 20
359.3178436502
 10
-346.7229535387
 20
355.3852483972
 10
-343.1969141171
 20
351.3165757402
 10
-339.9768476889
 20
347.1230015501
 10
-337.0715831921
 20
342.8159997209
 10
-334.4890778468
 20
338.4073719724
 10
-332.2364097045
 20
333.9092180475
 10
-330.3197552965
 20
329.3338761076
 10
-328.7443672822
 20
324.693863128
 10
-327.5145595477
 20
320.0019345029
 10
-326.6337221072
 20
315.2709052309
 10
-326.1042391465
 20
310.5137691244
 10
-325.9275858805
 20
305.7435497983
 10
-326.1042391465
 20
300.9733304723
 10
-326.6337221072
 20
296.2161943658
 10
-327.5145595477
 20
291.4851650938
 10
-328.7443672822
 20
286.7932066663
 10
-330.3197552965
 20
282.1531936868
 10
-332.2364097045
 20
277.5778517469
 10
-334.4890778468
 20
273.0797276243
 10
-337.0715831921
 20
268.6710998758
 10
-339.9768476889
 20
264.3640980466
 10
-343.1969141171
 20
260.1705238565
 10
-346.7229535387
 20
256.1018511995
 10
-350.5453025506
 20
252.1692261442
 10
-354.6534781859
 20
248.3834669336
 10
-359.0362226174
 20
244.7549149736
 10
-363.6815255091
 20
241.2935540422
 10
-368.5766538189
 20
238.0088314756
 10
-373.7081965015
 20
234.9097475751
 10
-379.0620719598
 20
232.004825805
 10
-384.623617451
 20
229.3020233854
 10
-390.3775890873
 20
226.8087312921
 10
-396.3082177148
 20
224.5318040594
 10
-402.3992387162
 20
222.4774703725
 10
-408.6339627908
 20
220.6513628706
 10
-414.995302032
 20
219.0584883436
 10
-421.4658183561
 20
217.7031979307
 10
-428.0277756558
 20
216.5892467245
 10
-434.6631900922
 20
215.7196447595
 10
-441.3538729356
 20
215.0967762216
 10
-448.0814873756
 20
214.7223994478
 10
-454.827592294
 20
214.5974681123
 10
-461.5736972124
 20
214.7223994478
 10
-468.3013116524
 20
215.0967762216
 10
-474.9919944958
 20
215.7196447595
 10
-481.6274089322
 20
216.5892467245
 10
-488.1893662319
 20
217.7031979307
 10
-494.659882556
 20
219.0584883436
 10
-501.0212217973
 20
220.6513628706
 10
-507.2559458719
 20
222.4774703725
 10
-513.3469668732
 20
224.5318040594
 10
-519.2775955007
 20
226.8087312921
 10
-525.031567137
 20
229.3020233854
 10
-530.5931126282
 20
232.004825805
 10
-535.9469880865
 20
234.9097475751
 10
-541.0785307691
 20
238.0088314756
 10
-545.9736590789
 20
241.2935540422
 10
-550.6189619706
 20
244.7549149736
 10
-555.0017064021
 20
248.3834669336
 10
-559.1098820374
 20
252.1692261442
 10
-562.9322310493
 20
256.1018511995
 10
-566.4582704709
 20
260.1705238565
 10
-569.6783368991
 20
264.3640980466
 10
-572.5836013959
 20
268.6710998758
 10
-575.1661067412
 20
273.0797276243
 10
-577.4187748835
 20
277.5778517469
 10
-579.3354292915
 20
282.1531936868
 10
-580.9108173058
 20
286.7932066663
 10
-582.1406250403
 20
291.4851650938
 10
-583.0214624808
 20
296.2161943658
 10
-583.5509454415
 20
300.9733304723
 10
-583.7275987075
 20
305.7435497983
  0
LINE
  5
96
330
1F
100
AcDbEntity
  8
0
  6
Continuous
 62
     7
370
    25
100
AcDbLine
 10
-612.3275911019
 20
-124.2564573542
 30
0.0
 11
-297.3275934861
 21
-124.2564573542
 31
0.0
  0
LWPOLYLINE
  5
97
330
1F
100
AcDbEntity
  8
0
  6
Continuous
 62
     1
370
    25
100
AcDbPolyline
 90
       35
 70
   128
 43
0.0
 10
-454.827592294
 20
59.5049009069
 10
-447.3897456706
 20
59.6291616901
 10
-439.9684952156
 20
60.0016460165
 10
-432.5804026381
 20
60.6215343221
 10
-425.2419495539
 20
61.4874407991
 10
-417.9695142017
 20
62.5974282964
 10
-410.7793276713
 20
63.9490232214
 10
-403.6874254749
 20
65.5392006382
 10
-396.7096400962
 20
67.3644289716
 10
-389.8615395234
 20
69.4206402048
 10
-383.1584011719
 20
71.7032149776
 10
-376.6151820824
 20
74.2070868953
 10
-370.2464853928
 20
76.9266680225
 10
-364.0665268109
 20
79.8558786853
 10
-358.0890899108
 20
82.9881772741
 10
-352.3275112317
 20
86.3166049465
 10
-346.7946579263
 20
89.8336962207
 10
-341.5028607056
 20
93.5316279872
 10
-336.463943641
 20
97.4021301015
 10
-331.6891347573
 20
101.4365896925
 10
-327.1891032861
 20
105.6259915575
 10
-322.9738777087
 20
109.9609777673
 10
-319.052860658
 20
114.4318923696
 10
-315.4348289178
 20
119.0287515863
 10
-312.127814214
 20
123.7413034185
 10
-309.139237325
 20
128.5590276464
 10
-306.4757441685
 20
133.4711656316
 10
-304.143280308
 20
138.4667501195
 10
-302.1470462487
 20
143.5346648439
 10
-300.4915123389
 20
148.6635849222
 10
-299.1803591655
 20
153.8420662626
 10
-298.216507356
 20
159.058545564
 10
-297.6021324799
 20
164.3013999208
 10
-297.3385756419
 20
169.5589170202
 10
-297.3275934861
 20
170.8742127164
  0
LWPOLYLINE
  5
98
330
1F
100
AcDbEntity
  8
0
  6
Continuous
 62
     1
370
    25
100
AcDbPolyline
 90
       35
 70
   128
 43
0.0
 10
-612.3275911019
 20
170.8742127164
 10
-612.3166089461
 20
169.5589170202
 10
-612.0530521081
 20
164.3013999208
 10
-611.4386772321
 20
159.058545564
 10
-610.4748254226
 20
153.8420662626
 10
-609.1636722491
 20
148.6635849222
 10
-607.5081383393
 20
143.5346648439
 10
-605.51190428
 20
138.4667501195
 10
-603.1794404195
 20
133.4711656316
 10
-600.515947263
 20
128.5590276464
 10
-597.527370374
 20
123.7413034185
 10
-594.2203556702
 20
119.0287515863
 10
-590.6023239301
 20
114.4318923696
 10
-586.6813068793
 20
109.9609777673
 10
-582.466081302
 20
105.6259915575
 10
-577.9660498307
 20
101.4365896925
 10
-573.191240947
 20
97.4021301015
 10
-568.1523238824
 20
93.5316279872
 10
-562.8605266617
 20
89.8336962207
 10
-557.3276733563
 20
86.3166049465
 10
-551.5660946772
 20
82.9881772741
 10
-545.5886577771
 20
79.8558786853
 10
-539.4086991952
 20
76.9266680225
 10
-533.0400025056
 20
74.2070868953
 10
-526.4967834161
 20
71.7032149776
 10
-519.7936450646
 20
69.4206402048
 10
-512.9455444918
 20
67.3644289716
 10
-505.9677591131
 20
65.5392006382
 10
-498.8758569167
 20
63.9490232214
 10
-491.6856703863
 20
62.5974282964
 10
-484.4132350341
 20
61.4874407991
 10
-477.0747819499
 20
60.6215343221
 10
-469.6866893724
 20
60.0016460165
 10
-462.2654389174
 20
59.6291616901
 10
-454.827592294
 20
59.5049009069
  0
LWPOLYLINE
  5
99
330
1F
100
AcDbEntity
  8
0
  6
Continuous
 62
     1
370
    25
100
AcDbPolyline
 90
       31
 70
   128
 43
0.0
 10
-541.5475075648
 20
238.3088812574
 10
-541.0785307691
 20
238.6089608415
 10
-535.9469880865
 20
241.7080149396
 10
-530.5931126282
 20
244.6129367097
 10
-525.031567137
 20
247.3157391294
 10
-519.2775955007
 20
249.8090312227
 10
-513.3469668732
 20
252.0859584554
 10
-507.2559458719
 20
254.1402921422
 10
-501.0212217973
 20
255.9663996442
 10
-494.659882556
 20
257.5592741712
 10
-488.1893662319
 20
258.9145645841
 10
-481.6274089322
 20
260.0285157903
 10
-474.9919944958
 20
260.8981177553
 10
-468.3013116524
 20
261.5209862932
 10
-461.5736972124
 20
261.895363067
 10
-454.827592294
 20
262.0202944025
 10
-448.0814873756
 20
261.895363067
 10
-441.3538729356
 20
261.5209862932
 10
-434.6631900922
 20
260.8981177553
 10
-428.0277756558
 20
260.0285157903
 10
-421.4658183561
 20
258.9145645841
 10
-414.995302032
 20
257.5592741712
 10
-408.6339627908
 20
255.9663996442
 10
-402.3992387162
 20
254.1402921422
 10
-396.3082177148
 20
252.0859584554
 10
-390.3775890873
 20
249.8090312227
 10
-384.623617451
 20
247.3157391294
 10
-379.0620719598
 20
244.6129367097
 10
-373.7081965015
 20
241.7080149396
 10
-368.5766538189
 20
238.6089608415
 10
-368.1076770232
 20
238.3088812574
  0
LINE
  5
9A
330
1F
100
AcDbEntity
  8
0
  6
Continuous
 62
     1
370
    25
100
AcDbLine
 10
-454.827592294
 20
59.5049009069
 30
0.0
 11
-297.3275934861
 21
59.5049009069
 31
0.0
  0
LINE
  5
9B
330
1F
100
AcDbEntity
  8
0
  6
Continuous
 62
     1
370
    25
100
AcDbLine
 10
-612.3275911019
 20
59.5049009069
 30
0.0
 11
-454.827592294
 21
59.5049009069
 31
0.0
  0
LINE
  5
9C
330
1F
100
AcDbEntity
  8
0
  6
Continuous
 62
     7
370
    25
100
AcDbLine
 10
543.2411783744
 20
59.5049009069
 30
0.0
 11
543.2411783744
 21
-124.2564573542
 31
0.0
  0
LINE
  5
9D
330
1F
100
AcDbEntity
  8
0
  6
Continuous
 62
     7
370
    25
100
AcDbLine
 10
858.2411759902
 20
-124.2564573542
 30
0.0
 11
858.2411759902
 21
59.5049009069
 31
0.0
  0
LINE
  5
9E
330
1F
100
AcDbEntity
  8
0
  6
Continuous
 62
     7
370
    25
100
AcDbLine
 10
858.2411759902
 20
59.5049009069
 30
0.0
 11
858.2411759902
 21
170.8742127164
 31
0.0
  0
LINE
  5
9F
330
1F
100
AcDbEntity
  8
0
  6
Continuous
 62
     7
370
    25
100
AcDbLine
 10
543.2411783744
 20
170.8742127164
 30
0.0
 11
543.2411783744
 21
59.5049009069
 31
0.0
  0
LINE
  5
A0
330
1F
100
AcDbEntity
  8
0
  6
Continuous
 62
     7
370
    25
100
AcDbLine
 10
543.2411783744
 20
305.7435497983
 30
0.0
 11
543.2411783744
 21
170.8742127164
 31
0.0
  0
LINE
  5
A1
330
1F
100
AcDbEntity
  8
0
  6
Continuous
 62
     7
370
    25
100
AcDbLine
 10
858.2411759902
 20
170.8742127164
 30
0.0
 11
858.2411759902
 21
305.7435497983
 31
0.0
  0
LINE
  5
A2
330
1F
100
AcDbEntity
  8
0
  6
Continuous
 62
     7
370
    25
100
AcDbLine
 10
543.2411783744
 20
-124.2564573542
 30
0.0
 11
858.2411759902
 21
-124.2564573542
 31
0.0
  0
LWPOLYLINE
  5
A3
330
1F
100
AcDbEntity
  8
0
  6
Continuous
 62
     7
370
    25
100
AcDbPolyline
 90
       69
 70
   128
 43
0.0
 10
543.2411783744
 20
305.7435497983
 10
543.2851069976
 20
308.3739623769
 10
543.6364614774
 20
313.6289164766
 10
544.3383657743
 20
318.8662574037
 10
545.3892701675
 20
324.0743324502
 10
546.7868202735
 20
329.2414889081
 10
548.5279166509
 20
334.356223081
 10
550.6086551953
 20
339.4071206792
 10
553.0243867446
 20
344.3828866228
 10
555.7697468806
 20
349.2724642499
 10
558.8385814239
 20
354.0648863061
 10
562.2240656425
 20
358.7494835599
 10
565.9186297465
 20
363.3157953962
 10
569.914033394
 20
367.7536592229
 10
574.2013656903
 20
372.0531508668
 10
578.7710675408
 20
376.2047037824
 10
583.6129241992
 20
380.1989898428
 10
588.7161397744
 20
384.0271577581
 10
594.0693297793
 20
387.6806244596
 10
599.6605434824
 20
391.1512837156
 10
605.477308612
 20
394.4313273176
 10
611.5066462566
 20
397.5134834989
 10
617.7351006676
 20
400.3908977254
 10
624.1487690617
 20
403.0570730909
 10
630.7333537747
 20
405.5061683401
 10
637.4741473604
 20
407.7325806364
 10
644.3561145474
 20
409.7314820035
 10
651.3639034141
 20
411.498282884
 10
658.4818677415
 20
413.0291685804
 10
665.6941303421
 20
414.3206224187
 10
672.9845960994
 20
415.3697833761
 10
680.3369985331
 20
416.1743268713
 10
687.7349305336
 20
416.7324647649
 10
695.1618839424
 20
417.0429453596
 10
702.6012875043
 20
417.1051130041
 10
710.0365401615
 20
416.9187292799
 10
717.4510506351
 20
416.4842710241
 10
724.8282765407
 20
415.8027515157
 10
732.1517520953
 20
414.8756608709
 10
739.4051419009
 20
413.7049660429
 10
746.5722539831
 20
412.2934684499
 10
753.6371031214
 20
410.6441483243
 10
760.5839164365
 20
408.7607607587
 10
767.3972004462
 20
406.6475376829
 10
774.0617447902
 20
404.309128259
 10
780.5626818348
 20
401.750777696
 10
786.8855127503
 20
398.9782080396
 10
793.0161186863
 20
395.9975585683
 10
798.940820377
 20
392.815564607
 10
804.6464004923
 20
389.4392595037
 10
810.1201334406
 20
385.8762130483
 10
815.3497928191
 20
382.1343526586
 10
820.3237184692
 20
378.2220229848
 10
825.0308090259
 20
374.1479859098
 10
829.4605517198
 20
369.9213013395
 10
833.6030894328
 20
365.5514166101
 10
837.4491387416
 20
361.0480770811
 10
840.9901612807
 20
356.421326135
 10
844.2182147313
 20
351.6814753755
 10
847.1261316348
 20
346.8391344293
 10
849.7074001838
 20
341.9050917371
 10
851.9562536288
 20
336.8903741582
 10
853.867700081
 20
331.8061277612
 10
855.4374629069
 20
326.6637370332
 10
856.6620254327
 20
321.4746758684
 10
857.5386756469
 20
316.2505075677
 10
858.0654614974
 20
311.0028848394
 10
858.2411759902
 20
305.7435497983
 10
858.2411759902
 20
305.7435497983
  0
LINE
  5
A4
330
1F
100
AcDbEntity
  8
0
  6
Continuous
 62
     1
370
    25
100
AcDbLine
 10
543.2411783744
 20
59.5049009069
 30
0.0
 11
858.2411759902
 21
59.5049009069
 31
0.0
  0
LWPOLYLINE
  5
A5
330
1F
100
AcDbEntity
  8
0
  6
Continuous
 62
     1
370
    25
100
AcDbPolyline
 90
       68
 70
   128
 43
0.0
 10
543.2411783744
 20
170.8742127164
 10
543.3400326778
 20
174.8193845495
 10
543.7791251947
 20
180.0710305913
 10
544.5684546043
 20
185.3021726354
 10
545.7062774707
 20
190.501098369
 10
547.1900307942
 20
195.6562146886
 10
549.0164214183
 20
200.7560775026
 10
551.1813813258
 20
205.789242719
 10
553.6800527383
 20
210.7444748624
 10
556.5068775226
 20
215.6107768758
 10
559.6555524875
 20
220.3772411092
 10
563.1190293838
 20
225.0332281335
 10
566.8896192123
 20
229.5683965429
 10
570.9588581134
 20
233.972553943
 10
575.3177159835
 20
238.2359549745
 10
579.9564251114
 20
242.3490330919
 10
584.8646589924
 20
246.3026091798
 10
590.0314578224
 20
250.0878915533
 10
595.4452955533
 20
253.6964163526
 10
601.0940873433
 20
257.1201071485
 10
606.9652342607
 20
260.3513643487
 10
613.0456307341
 20
263.3829757913
 10
619.3217092563
 20
266.208176349
 10
625.7794627358
 20
268.8206181272
 10
632.4044892002
 20
271.2145194753
 10
639.1819992472
 20
273.3845159753
 10
646.0968719233
 20
275.325779651
 10
653.1336808015
 20
277.0339593633
 10
660.2767163325
 20
278.5052702173
 10
667.5100491751
 20
279.7364041551
 10
674.8175283332
 20
280.7246193632
 10
682.1828556616
 20
281.4677104696
 10
689.5895942483
 20
281.9640383466
 10
697.0212161444
 20
282.212470506
 10
704.4611382202
 20
282.212470506
 10
711.8927601163
 20
281.9640383466
 10
719.299498703
 20
281.4677104696
 10
726.6648260314
 20
280.7246193632
 10
733.9723051895
 20
279.7364041551
 10
741.2056380321
 20
278.5052702173
 10
748.3486735631
 20
277.0339593633
 10
755.3854824413
 20
275.325779651
 10
762.3003551174
 20
273.3845159753
 10
769.0778651644
 20
271.2145194753
 10
775.7028916288
 20
268.8206181272
 10
782.1606451083
 20
266.208176349
 10
788.4367236305
 20
263.3829757913
 10
794.5171201039
 20
260.3513643487
 10
800.3882670213
 20
257.1201071485
 10
806.0370588113
 20
253.6964163526
 10
811.4508965422
 20
250.0878915533
 10
816.6176953722
 20
246.3026091798
 10
821.5259292532
 20
242.3490330919
 10
826.1646383811
 20
238.2359549745
 10
830.5234962512
 20
233.972553943
 10
834.5927351524
 20
229.5683965429
 10
838.3633249808
 20
225.0332281335
 10
841.8268018771
 20
220.3772411092
 10
844.975476842
 20
215.6107768758
 10
847.8023016263
 20
210.7444748624
 10
850.3009730388
 20
205.789242719
 10
852.4659329463
 20
200.7560775026
 10
854.2923235704
 20
195.6562146886
 10
855.7760768939
 20
190.501098369
 10
856.9138997604
 20
185.3021726354
 10
857.70322917
 20
180.0710305913
 10
858.1423216869
 20
174.8193845495
 10
858.2411759902
 20
170.8742127164
  0
LINE
  5
A6
330
1F
100
AcDbEntity
  8
0
  6
Continuous
 62
     7
370
    25
100
AcDbLine
 10
282.9624098001
 20
851.4213591518
 30
0.0
 11
148.0930987952
 21
851.4213591518
 31
0.0
  0
LINE
  5
A7
330
1F
100
AcDbEntity
  8
0
  6
Continuous
 62
     7
370
    25
100
AcDbLine
 10
148.0930987952
 20
536.421361536
 30
0.0
 11
282.9624098001
 21
536.421361536
 31
0.0
  0
LINE
  5
A8
330
1F
100
AcDbEntity
  8
0
  6
Continuous
 62
     7
370
    25
100
AcDbLine
 10
148.0930987952
 20
851.4213591518
 30
0.0
 11
101.9624155222
 21
851.4213591518
 31
0.0
  0
LINE
  5
A9
330
1F
100
AcDbEntity
  8
0
  6
Continuous
 62
     7
370
    25
100
AcDbLine
 10
101.9624155222
 20
536.421361536
 30
0.0
 11
148.0930987952
 21
536.421361536
 31
0.0
  0
CIRCLE
  5
AA
330
1F
100
AcDbEntity
  8
0
  6
Continuous
 62
     7
370
    25
100
AcDbCircle
 10
101.9624155222
 20
693.9213603439
 30
0.0
 40
128.9
  0
CIRCLE
  5
AB
330
1F
100
AcDbEntity
  8
0
  6
Continuous
 62
     7
370
    25
100
AcDbCircle
 10
101.9624155222
 20
693.9213603439
 30
0.0
 40
157.5
  0
LWPOLYLINE
  5
AC
330
1F
100
AcDbEntity
  8
0
  6
Continuous
 62
     7
370
    25
100
AcDbPolyline
 90
       68
 70
   128
 43
0.0
 10
282.9624098001
 20
851.4213591518
 10
288.2217746435
 20
851.245644659
 10
293.4693824707
 20
850.7188588085
 10
298.6935507713
 20
849.8422085943
 10
303.8826268373
 20
848.6176460685
 10
309.0250175653
 20
847.0478832426
 10
314.1092490612
 20
845.1364367904
 10
319.12396664
 20
842.8875833454
 10
324.0580093322
 20
840.3063147964
 10
328.9003502784
 20
837.3983978929
 10
333.6401861368
 20
834.1703444423
 10
338.2669370828
 20
830.6293219032
 10
342.770291513
 20
826.7832725944
 10
347.1401762424
 20
822.6407348814
 10
351.3668608127
 20
818.2109921875
 10
355.4409127889
 20
813.5039016308
 10
359.3532424627
 20
808.5299759807
 10
363.0951028524
 20
803.3003166022
 10
366.6581493078
 20
797.8265836539
 10
370.0344544111
 20
792.1210035386
 10
373.2164483724
 20
786.1963018479
 10
376.1970680414
 20
780.0656959118
 10
378.9696376977
 20
773.7428649964
 10
381.5279882608
 20
767.2419279518
 10
383.8663976846
 20
760.5773836078
 10
385.9796505628
 20
753.7640995981
 10
387.8630083261
 20
746.817286283
 10
389.5123284517
 20
739.7524371447
 10
390.9238558469
 20
732.5853250625
 10
392.0944910703
 20
725.3319352569
 10
393.0216413198
 20
718.0084597023
 10
393.7031608282
 20
710.6312337967
 10
394.1376190839
 20
703.2167233231
 10
394.3239730058
 20
695.7814706659
 10
394.2618351636
 20
688.342067104
 10
393.951354569
 20
680.9151136952
 10
393.3932166753
 20
673.5171816947
 10
392.5886433778
 20
666.164779261
 10
391.5394824205
 20
658.8743135037
 10
390.2480285821
 20
651.662050903
 10
388.7171726881
 20
644.5440865757
 10
386.9503420053
 20
637.536297709
 10
384.9514704404
 20
630.654330522
 10
382.7250283418
 20
623.9135369362
 10
380.275962895
 20
617.3289522233
 10
377.6097577272
 20
610.9152838292
 10
374.732373303
 20
604.6868294181
 10
371.6501873193
 20
598.6574917736
 10
368.3701437173
 20
592.840726644
 10
364.8994844614
 20
587.2495129408
 10
361.2460177599
 20
581.896322936
 10
357.4178498445
 20
576.7931073608
 10
353.4235339819
 20
571.9512507023
 10
349.2720257698
 20
567.3815488519
 10
344.9725341259
 20
563.0942165556
 10
340.5346702991
 20
559.0988129081
 10
335.9683584629
 20
555.4042488041
 10
331.2837463079
 20
552.0187645855
 10
326.4913242517
 20
548.9499300422
 10
321.6017764268
 20
546.2045699062
 10
316.6259955822
 20
543.7888383569
 10
311.5751128851
 20
541.7080998125
 10
306.4603787122
 20
539.9670034351
 10
301.2932073532
 20
538.5694533291
 10
296.0851323066
 20
537.5185489359
 10
290.8477764783
 20
536.816644639
 10
285.5928223787
 20
536.4652901592
 10
282.9624098001
 20
536.421361536
  0
LWPOLYLINE
  5
AD
330
1F
100
AcDbEntity
  8
0
  6
Continuous
 62
     7
370
    25
100
AcDbPolyline
 90
       25
 70
   128
 43
0.0
 10
207.9897579012
 20
767.2249182763
 10
206.5208908377
 20
764.1253351869
 10
204.027606195
 20
758.3713635506
 10
201.7506789623
 20
752.4407349231
 10
199.6963452755
 20
746.3497139218
 10
197.8702377735
 20
740.1149898471
 10
196.2773557959
 20
733.7536506059
 10
194.9220802842
 20
727.2831342818
 10
193.8081141768
 20
720.7211769821
 10
192.9385122119
 20
714.0857625457
 10
192.3156585751
 20
707.3950797023
 10
191.9412669001
 20
700.6674652623
 10
191.8163504658
 20
693.9213603439
 10
191.9412669001
 20
687.1752554255
 10
192.3156585751
 20
680.4476409855
 10
192.9385122119
 20
673.7569581421
 10
193.8081141768
 20
667.1215437057
 10
194.9220802842
 20
660.559586406
 10
196.2773557959
 20
654.0890700819
 10
197.8702377735
 20
647.7277308406
 10
199.6963452755
 20
641.493006766
 10
201.7506789623
 20
635.4019857647
 10
204.027606195
 20
629.4713571372
 10
206.5208908377
 20
623.7173855009
 10
207.9897579012
 20
620.6178024115
  0
LWPOLYLINE
  5
AE
330
1F
100
AcDbEntity
  8
0
  6
Continuous
 62
     1
370
    25
100
AcDbPolyline
 90
       35
 70
   128
 43
0.0
 10
259.4624143301
 20
693.9213603439
 10
259.338168448
 20
686.4835137205
 10
258.9656692205
 20
679.0622632655
 10
258.345795816
 20
671.674170688
 10
257.479889339
 20
664.3357176038
 10
256.3699018417
 20
657.0632822516
 10
255.0183069168
 20
649.8730957212
 10
253.4281145988
 20
642.7811935248
 10
251.6028862653
 20
635.8034081461
 10
249.5466899334
 20
628.9553075733
 10
247.2641002594
 20
622.2521692218
 10
244.7602283416
 20
615.7089501323
 10
242.0406472145
 20
609.3402534427
 10
239.1114514528
 20
603.1602948608
 10
235.9791379629
 20
597.1828579607
 10
232.6507251916
 20
591.4212792816
 10
229.1336339174
 20
585.8884259762
 10
225.4356947003
 20
580.5966287555
 10
221.5651851354
 20
575.5577116909
 10
217.5307329951
 20
570.7829028072
 10
213.3413311301
 20
566.2828713359
 10
209.0063374696
 20
562.0676457586
 10
204.5354303179
 20
558.1466287079
 10
199.9385711012
 20
554.5285969677
 10
195.226019269
 20
551.2215822639
 10
190.4083024917
 20
548.2330053749
 10
185.4961645065
 20
545.5695122184
 10
180.5005651174
 20
543.2370483579
 10
175.4326503931
 20
541.2408142986
 10
170.3037303148
 20
539.5852803888
 10
165.1252489744
 20
538.2741272154
 10
159.9087622223
 20
537.3102754058
 10
154.6659115909
 20
536.6959005298
 10
149.4083944915
 20
536.4323436918
 10
148.0930987952
 20
536.421361536
  0
LWPOLYLINE
  5
AF
330
1F
100
AcDbEntity
  8
0
  6
Continuous
 62
     1
370
    25
100
AcDbPolyline
 90
       35
 70
   128
 43
0.0
 10
148.0930987952
 20
851.4213591518
 10
149.4083944915
 20
851.410376996
 10
154.6659115909
 20
851.146820158
 10
159.9087622223
 20
850.5324452819
 10
165.1252489744
 20
849.5685934724
 10
170.3037303148
 20
848.257440299
 10
175.4326503931
 20
846.6019063892
 10
180.5005651174
 20
844.6056723299
 10
185.4961645065
 20
842.2732084694
 10
190.4083024917
 20
839.6097153129
 10
195.226019269
 20
836.6211384239
 10
199.9385711012
 20
833.3141237201
 10
204.5354303179
 20
829.6960919799
 10
209.0063374696
 20
825.7750749292
 10
213.3413311301
 20
821.5598493518
 10
217.5307329951
 20
817.0598178806
 10
221.5651851354
 20
812.2850089969
 10
225.4356947003
 20
807.2460919323
 10
229.1336339174
 20
801.9542947116
 10
232.6507251916
 20
796.4214414062
 10
235.9791379629
 20
790.6598627271
 10
239.1114514528
 20
784.682425827
 10
242.0406472145
 20
778.5024672451
 10
244.7602283416
 20
772.1337705555
 10
247.2641002594
 20
765.590551466
 10
249.5466899334
 20
758.8874131145
 10
251.6028862653
 20
752.0393125417
 10
253.4281145988
 20
745.061527163
 10
255.0183069168
 20
737.9696249666
 10
256.3699018417
 20
730.7794384362
 10
257.479889339
 20
723.507003084
 10
258.345795816
 20
716.1685499998
 10
258.9656692205
 20
708.7804574223
 10
259.338168448
 20
701.3592069673
 10
259.4624143301
 20
693.9213603439
  0
LWPOLYLINE
  5
B0
330
1F
100
AcDbEntity
  8
0
  6
Continuous
 62
     1
370
    25
100
AcDbPolyline
 90
       53
 70
   128
 43
0.0
 10
128.9851442186
 20
819.957005948
 10
124.5027594475
 20
818.4291973414
 10
119.9274137823
 20
816.5125429334
 10
115.4292691706
 20
814.2598747911
 10
111.0206535293
 20
811.6773694458
 10
106.7136503031
 20
808.772104949
 10
102.520065461
 20
805.5520385208
 10
98.4513929786
 20
802.0259990992
 10
94.5187853856
 20
798.2036500873
 10
90.7330205871
 20
794.095474452
 10
87.1044760777
 20
789.7127300205
 10
83.6430974511
 20
785.0674271288
 10
80.3583711592
 20
780.172298819
 10
77.25930216
 20
775.0407561364
 10
74.3543822525
 20
769.6868806781
 10
71.6515761076
 20
764.1253351869
 10
69.1582914649
 20
758.3713635506
 10
66.8813605068
 20
752.4407349231
 10
64.8270230947
 20
746.3497139218
 10
63.0009155927
 20
740.1149898471
 10
61.4080410657
 20
733.7536506059
 10
60.0527618287
 20
727.2831342818
 10
58.9387919961
 20
720.7211769821
 10
58.0691937564
 20
714.0857625457
 10
57.4463401197
 20
707.3950797023
 10
57.0719447194
 20
700.6674652623
 10
56.9470320104
 20
693.9213603439
 10
57.0719447194
 20
687.1752554255
 10
57.4463401197
 20
680.4476409855
 10
58.0691937564
 20
673.7569581421
 10
58.9387919961
 20
667.1215437057
 10
60.0527618287
 20
660.559586406
 10
61.4080410657
 20
654.0890700819
 10
63.0009155927
 20
647.7277308406
 10
64.8270230947
 20
641.493006766
 10
66.8813605068
 20
635.4019857647
 10
69.1582914649
 20
629.4713571372
 10
71.6515761076
 20
623.7173855009
 10
74.3543822525
 20
618.1558400097
 10
77.25930216
 20
612.8019645514
 10
80.3583711592
 20
607.6704218688
 10
83.6430974511
 20
602.775293559
 10
87.1044760777
 20
598.1299906673
 10
90.7330205871
 20
593.7472462358
 10
94.5187853856
 20
589.6390706005
 10
98.4513929786
 20
585.8167215886
 10
102.520065461
 20
582.290682167
 10
106.7136503031
 20
579.0706157388
 10
111.0206535293
 20
576.165351242
 10
115.4292691706
 20
573.5828458967
 10
119.9274137823
 20
571.3301777544
 10
124.5027594475
 20
569.4135233464
 10
128.9851442186
 20
567.8857147398
  0
INSERT
  5
BC
330
1F
100
AcDbEntity
  8
FORMAT
 62
     7
100
AcDbBlockReference
  2
SW_CENTERMARKSYMBOL_0
 10
101.9624155222
 20
693.9213603439
 30
0.0
  0
LINE
  5
BD
330
1F
100
AcDbEntity
  8
0
  6
Continuous
 62
     7
370
    25
100
AcDbLine
 10
282.9624098001
 20
-293.1158162555
 30
0.0
 11
148.0930987952
 21
-293.1158162555
 31
0.0
  0
LINE
  5
BE
330
1F
100
AcDbEntity
  8
0
  6
Continuous
 62
     7
370
    25
100
AcDbLine
 10
148.0930987952
 20
-608.1158138713
 30
0.0
 11
282.9624098001
 21
-608.1158138713
 31
0.0
  0
LINE
  5
BF
330
1F
100
AcDbEntity
  8
0
  6
Continuous
 62
     7
370
    25
100
AcDbLine
 10
101.9624155222
 20
-608.1158138713
 30
0.0
 11
148.0930987952
 21
-608.1158138713
 31
0.0
  0
LINE
  5
C0
330
1F
100
AcDbEntity
  8
0
  6
Continuous
 62
     7
370
    25
100
AcDbLine
 10
148.0930987952
 20
-293.1158162555
 30
0.0
 11
101.9624155222
 21
-293.1158162555
 31
0.0
  0
LWPOLYLINE
  5
C1
330
1F
100
AcDbEntity
  8
0
  6
Continuous
 62
     7
370
    25
100
AcDbPolyline
 90
      134
 70
   128
 43
0.0
 10
282.9624098001
 20
-608.1158138713
 10
288.2217746435
 20
-607.9400993785
 10
293.4693824707
 20
-607.413313528
 10
298.6935507713
 20
-606.5366633138
 10
303.8826268373
 20
-605.3121007881
 10
309.0250175653
 20
-603.7423379621
 10
314.1092490612
 20
-601.83089151
 10
319.12396664
 20
-599.5820380649
 10
324.0580093322
 20
-597.0007695159
 10
328.9003502784
 20
-594.0928526124
 10
333.6401861368
 20
-590.8647991619
 10
338.2669370828
 20
-587.3237766227
 10
342.770291513
 20
-583.4777273139
 10
347.1401762424
 20
-579.3351896009
 10
351.3668608127
 20
-574.905446907
 10
355.4409127889
 20
-570.1983563504
 10
359.3532424627
 20
-565.2244307002
 10
363.0951028524
 20
-559.9947713217
 10
366.6581493078
 20
-554.5210383734
 10
370.0344544111
 20
-548.8154582581
 10
373.2164483724
 20
-542.8907565674
 10
376.1970680414
 20
-536.7601506314
 10
378.9696376977
 20
-530.4373197159
 10
381.5279882608
 20
-523.9363826713
 10
383.8663976846
 20
-517.2718383273
 10
385.9796505628
 20
-510.4585543177
 10
387.8630083261
 20
-503.5117410025
 10
389.5123284517
 20
-496.4468918642
 10
390.9238558469
 20
-489.279779782
 10
392.0944910703
 20
-482.0263899764
 10
393.0216413198
 20
-474.7029144219
 10
393.7031608282
 20
-467.3256885162
 10
394.1376190839
 20
-459.9111780426
 10
394.3239730058
 20
-452.4759253854
 10
394.2618351636
 20
-445.0365218236
 10
393.951354569
 20
-437.6095684147
 10
393.3932166753
 20
-430.2116364142
 10
392.5886433778
 20
-422.8592339805
 10
391.5394824205
 20
-415.5687682232
 10
390.2480285821
 20
-408.3565056226
 10
388.7171726881
 20
-401.2385412952
 10
386.9503420053
 20
-394.2307524285
 10
384.9514704404
 20
-387.3487852415
 10
382.7250283418
 20
-380.6079916558
 10
380.275962895
 20
-374.0234069428
 10
377.6097577272
 20
-367.6097385487
 10
374.732373303
 20
-361.3812841377
 10
371.6501873193
 20
-355.3519464931
 10
368.3701437173
 20
-349.5351813635
 10
364.8994844614
 20
-343.9439676604
 10
361.2460177599
 20
-338.5907776555
 10
357.4178498445
 20
-333.4875620803
 10
353.4235339819
 20
-328.6457054219
 10
349.2720257698
 20
-324.0760035715
 10
344.9725341259
 20
-319.7886712751
 10
340.5346702991
 20
-315.7932676277
 10
335.9683584629
 20
-312.0987035236
 10
331.2837463079
 20
-308.713219305
 10
326.4913242517
 20
-305.6443847618
 10
321.6017764268
 20
-302.8990246257
 10
316.6259955822
 20
-300.4832930765
 10
311.5751128851
 20
-298.402554532
 10
306.4603787122
 20
-296.6614581546
 10
301.2932073532
 20
-295.2639080486
 10
296.0851323066
 20
-294.2130036554
 10
290.8477764783
 20
-293.5110993585
 10
285.5928223787
 20
-293.1597448787
 10
280.3320121227
 20
-293.1597448787
 10
275.077058023
 20
-293.5110993585
 10
269.8397021947
 20
-294.2130036554
 10
264.6316271482
 20
-295.2639080486
 10
259.4644557891
 20
-296.6614581546
 10
254.3497216163
 20
-298.402554532
 10
249.2988389192
 20
-300.4832930765
 10
244.3230580745
 20
-302.8990246257
 10
239.4335102497
 20
-305.6443847618
 10
234.6410732923
 20
-308.713219305
 10
229.9564760385
 20
-312.0987035236
 10
225.3901567517
 20
-315.7932676277
 10
220.9523003755
 20
-319.7886712751
 10
216.6528087316
 20
-324.0760035715
 10
212.5012856184
 20
-328.6457054219
 10
208.5069846569
 20
-333.4875620803
 10
204.6788241921
 20
-338.5907776555
 10
201.0253425894
 20
-343.9439676604
 10
197.5546982346
 20
-349.5351813635
 10
194.2746322809
 20
-355.3519464931
 10
191.1924611984
 20
-361.3812841377
 10
188.3150693236
 20
-367.6097385487
 10
185.6488641558
 20
-374.0234069428
 10
183.1998136101
 20
-380.6079916558
 10
180.9733640609
 20
-387.3487852415
 10
178.9744924961
 20
-394.2307524285
 10
177.2076618133
 20
-401.2385412952
 10
175.6768133698
 20
-408.3565056226
 10
174.3853595315
 20
-415.5687682232
 10
173.336183673
 20
-422.8592339805
 10
172.5316252766
 20
-430.2116364142
 10
171.9734799324
 20
-437.6095684147
 10
171.6629993377
 20
-445.0365218236
 10
171.6008614955
 20
-452.4759253854
 10
171.787222868
 20
-459.9111780426
 10
172.221658772
 20
-467.3256885162
 10
172.9032006321
 20
-474.7029144219
 10
173.8303285299
 20
-482.0263899764
 10
175.0009712039
 20
-489.279779782
 10
176.4125135003
 20
-496.4468918642
 10
178.0618187247
 20
-503.5117410025
 10
179.9451913891
 20
-510.4585543177
 10
182.0584368167
 20
-517.2718383273
 10
184.3968462406
 20
-523.9363826713
 10
186.9551819025
 20
-530.4373197159
 10
189.7277590094
 20
-536.7601506314
 10
192.7083712278
 20
-542.8907565674
 10
195.8903800903
 20
-548.8154582581
 10
199.266677743
 20
-554.5210383734
 10
202.829731649
 20
-559.9947713217
 10
206.5715920387
 20
-565.2244307002
 10
210.4839142619
 20
-570.1983563504
 10
214.5579662381
 20
-574.905446907
 10
218.7846508084
 20
-579.3351896009
 10
223.1545429884
 20
-583.4777273139
 10
227.6578825174
 20
-587.3237766227
 10
232.2846483646
 20
-590.8647991619
 10
237.0244693218
 20
-594.0928526124
 10
241.866810268
 20
-597.0007695159
 10
246.8008529602
 20
-599.5820380649
 10
251.8155854402
 20
-601.83089151
 10
256.8998169361
 20
-603.7423379621
 10
262.0422076641
 20
-605.3121007881
 10
267.2312688289
 20
-606.5366633138
 10
272.4554520307
 20
-607.413313528
 10
277.7030598579
 20
-607.9400993785
 10
282.9624098001
 20
-608.1158138713
  0
LWPOLYLINE
  5
C2
330
1F
100
AcDbEntity
  8
0
  6
Continuous
 62
     7
370
    25
100
AcDbPolyline
 90
      121
 70
   128
 43
0.0
 10
282.9624098001
 20
-579.5158214769
 10
278.1922053752
 20
-579.3391682109
 10
273.4350543676
 20
-578.8096852502
 10
268.7040250955
 20
-577.9288478097
 10
264.0120815692
 20
-576.6990400752
 10
259.3720834909
 20
-575.1236520609
 10
254.7967266498
 20
-573.2069976529
 10
250.298587626
 20
-570.9543295106
 10
245.8899747787
 20
-568.3718241653
 10
241.5829729496
 20
-565.4665596685
 10
237.3893838583
 20
-562.2464932403
 10
233.3207112012
 20
-558.7204538187
 10
229.3881010471
 20
-554.8981048068
 10
225.6023418365
 20
-550.7899291715
 10
221.9737973271
 20
-546.40718474
 10
218.512414044
 20
-541.7618818483
 10
215.2276914774
 20
-536.8667535386
 10
212.1286224781
 20
-531.7352108559
 10
209.223700708
 20
-526.3813353977
 10
206.5208908377
 20
-520.8197899064
 10
204.027606195
 20
-515.0658182701
 10
201.7506789623
 20
-509.1351896426
 10
199.6963452755
 20
-503.0441686413
 10
197.8702377735
 20
-496.8094445667
 10
196.2773557959
 20
-490.4481053254
 10
194.9220802842
 20
-483.9775890014
 10
193.8081141768
 20
-477.4156317016
 10
192.9385122119
 20
-470.7802172652
 10
192.3156585751
 20
-464.0895344219
 10
191.9412669001
 20
-457.3619199818
 10
191.8163504658
 20
-450.6158150634
 10
191.9412669001
 20
-443.869710145
 10
192.3156585751
 20
-437.142095705
 10
192.9385122119
 20
-430.4514128616
 10
193.8081141768
 20
-423.8159984252
 10
194.9220802842
 20
-417.2540411255
 10
196.2773557959
 20
-410.7835248014
 10
197.8702377735
 20
-404.4221855602
 10
199.6963452755
 20
-398.1874614856
 10
201.7506789623
 20
-392.0964404842
 10
204.027606195
 20
-386.1658118567
 10
206.5208908377
 20
-380.4118402204
 10
209.223700708
 20
-374.8502947292
 10
212.1286224781
 20
-369.4964192709
 10
215.2276914774
 20
-364.3648765883
 10
218.512414044
 20
-359.4697482786
 10
221.9737973271
 20
-354.8244453868
 10
225.6023418365
 20
-350.4417009553
 10
229.3881010471
 20
-346.33352532
 10
233.3207112012
 20
-342.5111763081
 10
237.3893838583
 20
-338.9851368865
 10
241.5829729496
 20
-335.7650704584
 10
245.8899747787
 20
-332.8598059616
 10
250.298587626
 20
-330.2773006162
 10
254.7967266498
 20
-328.0246324739
 10
259.3720834909
 20
-326.1079780659
 10
264.0120815692
 20
-324.5325900516
 10
268.7040250955
 20
-323.3027823171
 10
273.4350543676
 20
-322.4219448766
 10
278.1922053752
 20
-321.8924619159
 10
282.9624098001
 20
-321.71580865
 10
287.7326291261
 20
-321.8924619159
 10
292.4897801338
 20
-322.4219448766
 10
297.2207945047
 20
-323.3027823171
 10
301.9127529321
 20
-324.5325900516
 10
306.5527510105
 20
-326.1079780659
 10
311.1280929504
 20
-328.0246324739
 10
315.6262468753
 20
-330.2773006162
 10
320.0348597227
 20
-332.8598059616
 10
324.3418615518
 20
-335.7650704584
 10
328.5354506431
 20
-338.9851368865
 10
332.6041233001
 20
-342.5111763081
 10
336.5367334543
 20
-346.33352532
 10
340.3224926649
 20
-350.4417009553
 10
343.9510297237
 20
-354.8244453868
 10
347.4124204574
 20
-359.4697482786
 10
350.697143024
 20
-364.3648765883
 10
353.7962120233
 20
-369.4964192709
 10
356.7011337934
 20
-374.8502947292
 10
359.4039362131
 20
-380.4118402204
 10
361.8972283063
 20
-386.1658118567
 10
364.1741555391
 20
-392.0964404842
 10
366.2284892259
 20
-398.1874614856
 10
368.0545967279
 20
-404.4221855602
 10
369.6474712549
 20
-410.7835248014
 10
371.0027616678
 20
-417.2540411255
 10
372.116712874
 20
-423.8159984252
 10
372.9863148389
 20
-430.4514128616
 10
373.6091833768
 20
-437.142095705
 10
373.9835601507
 20
-443.869710145
 10
374.1084914861
 20
-450.6158150634
 10
373.9835601507
 20
-457.3619199818
 10
373.6091833768
 20
-464.0895344219
 10
372.9863148389
 20
-470.7802172652
 10
372.116712874
 20
-477.4156317016
 10
371.0027616678
 20
-483.9775890014
 10
369.6474712549
 20
-490.4481053254
 10
368.0545967279
 20
-496.8094445667
 10
366.2284892259
 20
-503.0441686413
 10
364.1741555391
 20
-509.1351896426
 10
361.8972283063
 20
-515.0658182701
 10
359.4039362131
 20
-520.8197899064
 10
356.7011337934
 20
-526.3813353977
 10
353.7962120233
 20
-531.7352108559
 10
350.697143024
 20
-536.8667535386
 10
347.4124204574
 20
-541.7618818483
 10
343.9510297237
 20
-546.40718474
 10
340.3224926649
 20
-550.7899291715
 10
336.5367334543
 20
-554.8981048068
 10
332.6041233001
 20
-558.7204538187
 10
328.5354506431
 20
-562.2464932403
 10
324.3418615518
 20
-565.4665596685
 10
320.0348597227
 20
-568.3718241653
 10
315.6262468753
 20
-570.9543295106
 10
311.1280929504
 20
-573.2069976529
 10
306.5527510105
 20
-575.1236520609
 10
301.9127529321
 20
-576.6990400752
 10
297.2207945047
 20
-577.9288478097
 10
292.4897801338
 20
-578.8096852502
 10
287.7326291261
 20
-579.3391682109
 10
282.9624098001
 20
-579.5158214769
  0
ARC
  5
C3
330
1F
100
AcDbEntity
  8
0
  6
Continuous
 62
     7
370
    25
100
AcDbCircle
 10
101.9624155222
 20
-450.6158150634
 30
0.0
 40
157.5000000000001
100
AcDbArc
 50
90.0
 51
270.0
  0
ARC
  5
C4
330
1F
100
AcDbEntity
  8
0
  6
Continuous
 62
     7
370
    25
100
AcDbCircle
 10
101.9624155222
 20
-450.6158150634
 30
0.0
 40
128.9
100
AcDbArc
 50
325.341387479
 51
34.658612521
  0
LWPOLYLINE
  5
C5
330
1F
100
AcDbEntity
  8
0
  6
Continuous
 62
     1
370
    25
100
AcDbPolyline
 90
       68
 70
   128
 43
0.0
 10
148.0930987952
 20
-293.1158162555
 10
144.1479418634
 20
-293.2146705589
 10
138.8962920962
 20
-293.6537630758
 10
133.6651649533
 20
-294.4430924854
 10
128.4662317691
 20
-295.5809153518
 10
123.3110930977
 20
-297.0646686754
 10
118.2112526355
 20
-298.8910592994
 10
113.1780911444
 20
-301.0560192069
 10
108.2228385119
 20
-303.5546906194
 10
103.3565519817
 20
-306.3815154037
 10
98.590090193
 20
-309.5301903686
 10
93.9340889661
 20
-312.9936672649
 10
89.3989373205
 20
-316.7642570934
 10
84.994755706
 20
-320.8334959945
 10
80.7313714383
 20
-325.1923538646
 10
76.6182970462
 20
-329.8310629925
 10
72.6647116451
 20
-334.7392968735
 10
68.8794348596
 20
-339.9060957035
 10
65.2709175108
 20
-345.3199334344
 10
61.8472043632
 20
-350.9687252244
 10
58.6159434376
 20
-356.8398721418
 10
55.5843394456
 20
-362.9202686152
 10
52.7591575144
 20
-369.1963471374
 10
50.1467045603
 20
-375.6541006169
 10
47.7528106628
 20
-382.2791270813
 10
45.5828104375
 20
-389.0566371283
 10
43.6415542124
 20
-395.9715098044
 10
41.9333670495
 20
-403.0083186826
 10
40.4620673714
 20
-410.1513542137
 10
39.2309334336
 20
-417.3846870562
 10
38.242710775
 20
-424.6921662143
 10
37.499612218
 20
-432.0574935427
 10
37.0032843409
 20
-439.4642321295
 10
36.7548447309
 20
-446.8958540256
 10
36.7548447309
 20
-454.3357761013
 10
37.0032843409
 20
-461.7673979974
 10
37.499612218
 20
-469.1741365841
 10
38.242710775
 20
-476.5394639125
 10
39.2309334336
 20
-483.8469430706
 10
40.4620673714
 20
-491.0802759132
 10
41.9333670495
 20
-498.2233114442
 10
43.6415542124
 20
-505.2601203224
 10
45.5828104375
 20
-512.1749929985
 10
47.7528106628
 20
-518.9525030455
 10
50.1467045603
 20
-525.57752951
 10
52.7591575144
 20
-532.0352829894
 10
55.5843394456
 20
-538.3113615116
 10
58.6159434376
 20
-544.3917579851
 10
61.8472043632
 20
-550.2629049024
 10
65.2709175108
 20
-555.9116966924
 10
68.8794348596
 20
-561.3255344233
 10
72.6647116451
 20
-566.4923332533
 10
76.6182970462
 20
-571.4005671343
 10
80.7313714383
 20
-576.0392762622
 10
84.994755706
 20
-580.3981341323
 10
89.3989373205
 20
-584.4673730335
 10
93.9340889661
 20
-588.237962862
 10
98.590090193
 20
-591.7014397582
 10
103.3565519817
 20
-594.8501147231
 10
108.2228385119
 20
-597.6769395074
 10
113.1780911444
 20
-600.1756109199
 10
118.2112526355
 20
-602.3405708274
 10
123.3110930977
 20
-604.1669614515
 10
128.4662317691
 20
-605.650714775
 10
133.6651649533
 20
-606.7885376415
 10
138.8962920962
 20
-607.5778670511
 10
144.1479418634
 20
-608.016959568
 10
148.0930987952
 20
-608.1158138713
  0
LWPOLYLINE
  5
C6
330
1F
100
AcDbEntity
  8
0
  6
Continuous
 62
     1
370
    25
100
AcDbPolyline
 90
       31
 70
   128
 43
0.0
 10
215.5277561603
 20
-363.8958997926
 10
215.8278208433
 20
-364.3648765883
 10
218.9268898426
 20
-369.4964192709
 10
221.8318116127
 20
-374.8502947292
 10
224.5346214829
 20
-380.4118402204
 10
227.0279061256
 20
-386.1658118567
 10
229.3048333583
 20
-392.0964404842
 10
231.3591670452
 20
-398.1874614856
 10
233.1852745472
 20
-404.4221855602
 10
234.7781490741
 20
-410.7835248014
 10
236.133439487
 20
-417.2540411255
 10
237.2474055944
 20
-423.8159984252
 10
238.1170075594
 20
-430.4514128616
 10
238.7398611961
 20
-437.142095705
 10
239.1142528711
 20
-443.869710145
 10
239.2391544042
 20
-450.6158150634
 10
239.1142528711
 20
-457.3619199818
 10
238.7398611961
 20
-464.0895344219
 10
238.1170075594
 20
-470.7802172652
 10
237.2474055944
 20
-477.4156317016
 10
236.133439487
 20
-483.9775890014
 10
234.7781490741
 20
-490.4481053254
 10
233.1852745472
 20
-496.8094445667
 10
231.3591670452
 20
-503.0441686413
 10
229.3048333583
 20
-509.1351896426
 10
227.0279061256
 20
-515.0658182701
 10
224.5346214829
 20
-520.8197899064
 10
221.8318116127
 20
-526.3813353977
 10
218.9268898426
 20
-531.7352108559
 10
215.8278208433
 20
-536.8667535386
 10
215.5277561603
 20
-537.3357303342
  0
INSERT
  5
D2
330
1F
100
AcDbEntity
  8
FORMAT
 62
     7
100
AcDbBlockReference
  2
SW_CENTERMARKSYMBOL_1
 10
101.9624155222
 20
-450.6158150634
 30
0.0
  0
LINE
  5
D3
330
1F
100
AcDbEntity
  8
0
  6
Continuous
 62
     7
370
    25
100
AcDbLine
 10
538.2635976112
 20
-505.7301541466
 30
0.0
 11
538.2635976112
 21
-655.7788028143
 31
0.0
  0
LINE
  5
D4
330
1F
100
AcDbEntity
  8
0
  6
Continuous
 62
     7
370
    25
100
AcDbLine
 10
853.2636010711
 20
-655.7788028143
 30
0.0
 11
853.2636010711
 21
-505.7301541466
 31
0.0
  0
LINE
  5
D5
330
1F
100
AcDbEntity
  8
0
  6
Continuous
 62
     7
370
    25
100
AcDbLine
 10
687.3509250593
 20
-152.0313117651
 30
0.0
 11
591.9839180396
 21
-317.2118310553
 31
0.0
  0
LINE
  5
D6
330
1F
100
AcDbEntity
  8
0
  6
Continuous
 62
     7
370
    25
100
AcDbLine
 10
864.781918569
 20
-474.7118244741
 30
0.0
 11
960.1489255886
 21
-309.5313173513
 31
0.0
  0
SPLINE
  5
D7
330
1F
100
AcDbEntity
  8
0
  6
Continuous
 62
     7
370
    25
100
AcDbSpline
210
0.0
220
0.0
230
1.0
 70
     8
 71
     3
 72
    28
 73
    24
 74
     0
 42
0.000000001
 43
0.00000001
 40
0.0
 40
0.0
 40
0.0
 40
0.0
 40
0.0288745647413876
 40
0.0785076406982417
 40
0.1281782648782213
 40
0.1779059284042131
 40
0.2277110096971225
 40
0.2776134886158066
 40
0.327632187315881
 40
0.3777837123882995
 40
0.4280829176553625
 40
0.4785410039883681
 40
0.529165403510681
 40
0.5799587056317029
 40
0.6309174983111073
 40
0.6820312321677281
 40
0.7332816744275635
 40
0.7846417760577638
 40
0.8360753550363731
 40
0.8875228071200151
 40
0.9389267159935673
 40
0.9866468367439759
 40
1.0
 40
1.0
 40
1.0
 40
1.0
 10
591.9839180396381
 20
-317.211831055323
 30
0.0
 10
591.0151019744933
 20
-318.905785932132
 30
0.0
 10
588.3809682922611
 20
-323.5115142614989
 30
0.0
 10
584.2486865495198
 20
-331.1243736263456
 30
0.0
 10
579.6450890212548
 20
-340.073485247479
 30
0.0
 10
575.256306690693
 20
-349.1304927543343
 30
0.0
 10
571.0824588225505
 20
-358.2886203054363
 30
0.0
 10
567.1288198902507
 20
-367.5440770707278
 30
0.0
 10
563.3997790929703
 20
-376.8922439042778
 30
0.0
 10
559.900410157418
 20
-386.3285451427761
 30
0.0
 10
556.6362653953967
 20
-395.8480766473035
 30
0.0
 10
553.6133846102294
 20
-405.4455528900438
 30
0.0
 10
550.838164028299
 20
-415.1150408465177
 30
0.0
 10
548.3175903755678
 20
-424.8498798225457
 30
0.0
 10
546.0589225105863
 20
-434.6423834733733
 30
0.0
 10
544.0697978710984
 20
-444.483685004952
 30
0.0
 10
542.357997163932
 20
-454.3635126767035
 30
0.0
 10
540.9312342917298
 20
-464.2700411172868
 30
0.0
 10
539.7973901415598
 20
-474.1888389013193
 30
0.0
 10
538.9626006317156
 20
-484.1036556335977
 30
0.0
 10
538.4485743080417
 20
-493.7665350168381
 30
0.0
 10
538.2760667117138
 20
-500.9714277857713
 30
0.0
 10
538.2658347451995
 20
-504.8763709509016
 30
0.0
 10
538.2635976112133
 20
-505.7301541465782
 30
0.0
  0
SPLINE
  5
D8
330
1F
100
AcDbEntity
  8
0
  6
Continuous
 62
     7
370
    25
100
AcDbSpline
210
0.0
220
0.0
230
1.0
 70
     8
 71
     3
 72
    24
 73
    20
 74
     0
 42
0.000000001
 43
0.00000001
 40
0.0
 40
0.0
 40
0.0
 40
0.0
 40
0.044637054681349
 40
0.1082393693430361
 40
0.170242436669221
 40
0.2309845711169618
 40
0.2907791393423004
 40
0.3499104613952667
 40
0.4086300220004564
 40
0.4671540405102232
 40
0.5256618385660985
 40
0.5842929288011858
 40
0.6431133963045802
 40
0.7022003170608649
 40
0.761595343379188
 40
0.8213076433220405
 40
0.8813187173590987
 40
0.9415874145941838
 40
0.9999999999999999
 40
0.9999999999999999
 40
0.9999999999999999
 40
0.9999999999999999
 10
853.2632322861318
 20
-505.8512273857646
 30
0.0
 10
853.2631185320473
 20
-505.8512171060957
 30
0.0
 10
853.2628426923787
 20
-505.8511921791626
 30
0.0
 10
853.284567045562
 20
-505.5093188957194
 30
0.0
 10
853.3491836852261
 20
-504.8781970408742
 30
0.0
 10
853.4726115035562
 20
-503.9601600358331
 30
0.0
 10
853.6693209662798
 20
-502.7811551357644
 30
0.0
 10
853.9530491151875
 20
-501.3511314392562
 30
0.0
 10
854.3357926102258
 20
-499.6855862465746
 30
0.0
 10
854.8280421419649
 20
-497.8003705642396
 30
0.0
 10
855.4384325439432
 20
-495.7134316028931
 30
0.0
 10
856.173443728296
 20
-493.4451746083172
 30
0.0
 10
857.0372382153122
 20
-491.0182312353143
 30
0.0
 10
858.031364536579
 20
-488.4572563721354
 30
0.0
 10
859.1550826578606
 20
-485.7883508693845
 30
0.0
 10
860.4041611860287
 20
-483.0389896928848
 30
0.0
 10
861.7739161136385
 20
-480.2395112171698
 30
0.0
 10
863.2302032587772
 20
-477.4478600058768
 30
0.0
 10
864.2712663942377
 20
-475.6142329770627
 30
0.0
 10
864.7836571264555
 20
-474.7117579360144
 30
0.0
  0
LWPOLYLINE
  5
D9
330
1F
100
AcDbEntity
  8
0
  6
Continuous
 62
     7
370
    25
100
AcDbPolyline
 90
      134
 70
   128
 43
0.0
 10
584.3942821472
 20
-591.4866644949
 10
589.7778828414
 20
-588.5222327047
 10
595.3979932102
 20
-585.7078842897
 10
601.242048883
 20
-583.0498871072
 10
607.2970152882
 20
-580.5541721838
 10
613.5493935806
 20
-578.2263181291
 10
619.9852199824
 20
-576.0715150191
 10
626.5901316378
 20
-574.0945628758
 10
633.3494034918
 20
-572.299886874
 10
640.2479496067
 20
-570.6914879192
 10
647.2703626752
 20
-569.272944168
 10
654.4009983139
 20
-568.0474353595
 10
661.6239144775
 20
-567.017680467
 10
668.9230216064
 20
-566.1859970047
 10
676.2820088704
 20
-565.5542219524
 10
683.684475877
 20
-565.1237756239
 10
691.1138905248
 20
-564.8956190881
 10
698.5536838341
 20
-564.8702541689
 10
705.9872499465
 20
-565.0477477762
 10
713.3980040771
 20
-565.4276923681
 10
720.769403588
 20
-566.00924853
 10
728.0850112081
 20
-566.791114561
 10
735.3285055705
 20
-567.7715447221
 10
742.4836970168
 20
-568.9483583602
 10
749.5346540385
 20
-570.3189155772
 10
756.4656163482
 20
-571.8801765365
 10
763.2611292235
 20
-573.6286451981
 10
769.9060329699
 20
-575.5604240626
 10
776.385497165
 20
-577.6711974441
 10
782.6850575372
 20
-579.9562649252
 10
788.7906620638
 20
-582.4105193066
 10
794.6886946786
 20
-585.0284846248
 10
800.3659739547
 20
-587.8043275564
 10
805.8098543558
 20
-590.7318428776
 10
811.008172071
 20
-593.8045073521
 10
815.9493358937
 20
-597.015459203
 10
820.6223235998
 20
-600.3575325174
 10
825.0166949541
 20
-603.8232769205
 10
829.1226606924
 20
-607.4049487368
 10
832.9310472896
 20
-611.0945636431
 10
836.4333503021
 20
-614.8838909665
 10
839.6217778312
 20
-618.7644666098
 10
842.4891965228
 20
-622.7276348704
 10
845.0292079584
 20
-626.7645560436
 10
847.2361644604
 20
-630.8662155466
 10
849.1051032374
 20
-635.0234710595
 10
850.6318991665
 20
-639.2270312361
 10
851.8131067428
 20
-643.4675347788
 10
852.6461181302
 20
-647.7355017771
 10
853.1290577939
 20
-652.0214188658
 10
853.2608562575
 20
-656.3157209763
 10
853.0412132249
 20
-660.6088247921
 10
852.4706239214
 20
-664.8911500379
 10
851.5503632892
 20
-669.1531468521
 10
850.2824754505
 20
-673.3852957865
 10
848.6697947809
 20
-677.5781564684
 10
846.7159248359
 20
-681.7223736829
 10
844.4252225459
 20
-685.8087047454
 10
841.802792948
 20
-689.8280225431
 10
838.8545023566
 20
-693.771368758
 10
835.5869072409
 20
-697.6299340992
 10
832.0073227133
 20
-701.3951160876
 10
828.1237250649
 20
-705.0585144947
 10
823.9447741559
 20
-708.6119427471
 10
819.4798028791
 20
-712.0474826714
 10
814.738769086
 20
-715.3574635844
 10
809.7322639833
 20
-718.5345061081
 10
804.4714446321
 20
-721.5715124751
 10
798.9680492589
 20
-724.4617063514
 10
793.2343728897
 20
-727.1986469027
 10
787.2831983673
 20
-729.7762199556
 10
781.1278131442
 20
-732.1886769648
 10
774.7819333855
 20
-734.4306301659
 10
768.2597401886
 20
-736.497080328
 10
761.5757847529
 20
-738.3834228364
 10
754.7449686236
 20
-740.0854347664
 10
747.7825515939
 20
-741.5993311491
 10
740.7040516068
 20
-742.9217254332
 10
733.5252789987
 20
-744.0496705435
 10
726.2622443037
 20
-744.9806512776
 10
718.9311529851
 20
-745.7125873471
 10
711.5483580201
 20
-746.243842502
 10
704.1303493631
 20
-746.5732366956
 10
696.6936696523
 20
-746.7000339194
 10
689.2549142092
 20
-746.6239482858
 10
681.8306836237
 20
-746.3451531523
 10
674.4375468757
 20
-745.8642659143
 10
667.091983383
 20
-745.1823692951
 10
659.8104146114
 20
-744.3009687664
 10
652.6090565608
 20
-743.2220533758
 10
645.5040040591
 20
-741.9480045061
 10
638.5110937846
 20
-740.4816871157
 10
631.6459411447
 20
-738.8263615397
 10
624.9238586161
 20
-736.9857215062
 10
618.3598399404
 20
-734.9638850131
 10
611.9685469524
 20
-732.7653502277
 10
605.7642371408
 20
-730.3950266607
 10
599.7607412572
 20
-727.8582100755
 10
593.9714731948
 20
-725.1605516941
 10
588.4093387796
 20
-722.3080785358
 10
583.0867510816
 20
-719.3071535953
 10
578.0155963353
 20
-716.1644683337
 10
573.2071743412
 20
-712.8870447695
 10
568.6722340275
 20
-709.4821830155
 10
564.4208801012
 20
-705.9574925475
 10
560.4625982372
 20
-702.320833753
 10
556.8062353225
 20
-698.5803186923
 10
553.4599336014
 20
-694.7442974116
 10
550.4311688712
 20
-690.8213313313
 10
547.7266925301
 20
-686.820171957
 10
545.3525605535
 20
-682.7497411099
 10
543.3140386632
 20
-678.6191370103
 10
541.6156997923
 20
-674.4375567224
 10
540.2613213521
 20
-670.2143463369
 10
539.253927379
 20
-665.9589279784
 10
538.5957727294
 20
-661.6807906815
 10
538.2883114695
 20
-657.3894843078
 10
538.3322495591
 20
-653.0945830499
 10
538.7274710943
 20
-648.8056732657
 10
539.4731067964
 20
-644.5323200237
 10
540.5674918648
 20
-640.2840671028
 10
542.0081659773
 20
-636.0703822481
 10
543.7919470468
 20
-631.9006815014
 10
545.914820586
 20
-627.7842531678
 10
548.3720766846
 20
-623.7303003942
 10
551.1582072763
 20
-619.7478544908
 10
554.2670141402
 20
-615.8458099069
 10
557.6915667539
 20
-612.0328755687
 10
561.4241996594
 20
-608.3175520699
 10
565.4565980736
 20
-604.7081309104
 10
569.7797715469
 20
-601.2126732076
 10
574.3840565973
 20
-597.8389716789
 10
579.2591792718
 20
-594.5945510225
 10
584.3942821472
 20
-591.4866644949
  0
LWPOLYLINE
  5
DA
330
1F
100
AcDbEntity
  8
0
  6
Continuous
 62
     7
370
    25
100
AcDbPolyline
 90
      121
 70
   128
 43
0.0
 10
604.6175307112
 20
-603.1612973894
 10
599.9722268991
 20
-605.9871953583
 10
595.5894860993
 20
-608.9495719514
 10
591.4813050173
 20
-612.0402972407
 10
587.658963862
 20
-615.2509128315
 10
584.1329269054
 20
-618.5726101931
 10
580.912860264
 20
-621.9962873035
 10
578.0075910682
 20
-625.5125600551
 10
575.4250824384
 20
-629.1117888662
 10
573.1724124108
 20
-632.7841090947
 10
571.2557554988
 20
-636.5194599309
 10
569.6803695218
 20
-640.3075980836
 10
568.4505718974
 20
-644.13814188
 10
567.5697291053
 20
-648.0005895137
 10
567.0402487842
 20
-651.8843601028
 10
566.863595537
 20
-655.7788028143
 10
567.0402487842
 20
-659.6732455259
 10
567.5697291053
 20
-663.557016115
 10
568.4505718974
 20
-667.4194637486
 10
569.6803695218
 20
-671.2500075451
 10
571.2557554988
 20
-675.0381456978
 10
573.1724124108
 20
-678.7734965339
 10
575.4250824384
 20
-682.4458167624
 10
578.0075910682
 20
-686.0450455735
 10
580.912860264
 20
-689.5613183252
 10
584.1329269054
 20
-692.9849954356
 10
587.658963862
 20
-696.3066927971
 10
591.4813050173
 20
-699.517308388
 10
595.5894860993
 20
-702.6080336772
 10
599.9722268991
 20
-705.5704102704
 10
604.6175307112
 20
-708.3963082393
 10
609.5126599679
 20
-711.077985049
 10
614.6442027517
 20
-713.6080874579
 10
619.9980760882
 20
-715.9796899155
 10
625.5596280209
 20
-718.1862804959
 10
631.3136000733
 20
-720.2218183033
 10
637.2442253728
 20
-722.0807232075
 10
643.335248407
 20
-723.7578994145
 10
649.5699711211
 20
-725.2487499129
 10
655.9313056023
 20
-726.5491886392
 10
662.4018241288
 20
-727.6556511228
 10
668.9637828773
 20
-728.5651020891
 10
675.5991983144
 20
-729.275049146
 10
682.2898788066
 20
-729.7835488661
 10
689.0174957431
 20
-730.0892113493
 10
695.7635993411
 20
-730.1911910982
 10
702.5097029391
 20
-730.0892113493
 10
709.2373198757
 20
-729.7835488661
 10
715.9280003679
 20
-729.275049146
 10
722.563415805
 20
-728.5651020891
 10
729.1253745535
 20
-727.6556511228
 10
735.59589308
 20
-726.5491886392
 10
741.9572275612
 20
-725.2487499129
 10
748.1919502753
 20
-723.7578994145
 10
754.2829733094
 20
-722.0807232075
 10
760.213598609
 20
-720.2218183033
 10
765.9675706614
 20
-718.1862804959
 10
771.529122594
 20
-715.9796899155
 10
776.8829959306
 20
-713.6080874579
 10
782.0145387144
 20
-711.077985049
 10
786.9096679711
 20
-708.3963082393
 10
791.5549717832
 20
-705.5704102704
 10
795.9377125829
 20
-702.6080336772
 10
800.0458936649
 20
-699.517308388
 10
803.8682348203
 20
-696.3066927971
 10
807.3942717769
 20
-692.9849954356
 10
810.6143384183
 20
-689.5613183252
 10
813.519607614
 20
-686.0450455735
 10
816.1021162439
 20
-682.4458167624
 10
818.3547862714
 20
-678.7734965339
 10
820.2714431834
 20
-675.0381456978
 10
821.8468291605
 20
-671.2500075451
 10
823.0766267848
 20
-667.4194637486
 10
823.9574695769
 20
-663.557016115
 10
824.4869498981
 20
-659.6732455259
 10
824.6636031452
 20
-655.7788028143
 10
824.4869498981
 20
-651.8843601028
 10
823.9574695769
 20
-648.0005895137
 10
823.0766267848
 20
-644.13814188
 10
821.8468291605
 20
-640.3075980836
 10
820.2714431834
 20
-636.5194599309
 10
818.3547862714
 20
-632.7841090947
 10
816.1021162439
 20
-629.1117888662
 10
813.519607614
 20
-625.5125600551
 10
810.6143384183
 20
-621.9962873035
 10
807.3942717769
 20
-618.5726101931
 10
803.8682348203
 20
-615.2509128315
 10
800.0458936649
 20
-612.0402972407
 10
795.9377125829
 20
-608.9495719514
 10
791.5549717832
 20
-605.9871953583
 10
786.9096679711
 20
-603.1612973894
 10
782.0145387144
 20
-600.4796205797
 10
776.8829959306
 20
-597.9495181708
 10
771.529122594
 20
-595.5779157131
 10
765.9675706614
 20
-593.3713251327
 10
760.213598609
 20
-591.3357873253
 10
754.2829733094
 20
-589.4768824211
 10
748.1919502753
 20
-587.7997062141
 10
741.9572275612
 20
-586.3088557158
 10
735.59589308
 20
-585.0084169895
 10
729.1253745535
 20
-583.9019545059
 10
722.563415805
 20
-582.9925035396
 10
715.9280003679
 20
-582.2825564827
 10
709.2373198757
 20
-581.7740567625
 10
702.5097029391
 20
-581.4683942793
 10
695.7635993411
 20
-581.3664145304
 10
689.0174957431
 20
-581.4683942793
 10
682.2898788066
 20
-581.7740567625
 10
675.5991983144
 20
-582.2825564827
 10
668.9637828773
 20
-582.9925035396
 10
662.4018241288
 20
-583.9019545059
 10
655.9313056023
 20
-585.0084169895
 10
649.5699711211
 20
-586.3088557158
 10
643.335248407
 20
-587.7997062141
 10
637.2442253728
 20
-589.4768824211
 10
631.3136000733
 20
-591.3357873253
 10
625.5596280209
 20
-593.3713251327
 10
619.9980760882
 20
-595.5779157131
 10
614.6442027517
 20
-597.9495181708
 10
609.5126599679
 20
-600.4796205797
 10
604.6175307112
 20
-603.1612973894
  0
LWPOLYLINE
  5
DB
330
1F
100
AcDbEntity
  8
0
  6
Continuous
 62
     7
370
    25
100
AcDbPolyline
 90
      134
 70
   128
 43
0.0
 10
712.3806054959
 20
-166.4891777595
 10
716.2237869507
 20
-168.7084971068
 10
720.3068998775
 20
-171.0663365517
 10
724.6208300201
 20
-173.5574086613
 10
729.1559573604
 20
-176.1761583709
 10
733.9021666548
 20
-178.9167690711
 10
738.8488579708
 20
-181.7730956938
 10
743.9849782975
 20
-184.7388046343
 10
749.2991058388
 20
-187.8072399122
 10
754.7793657203
 20
-190.9715691797
 10
760.4135142824
 20
-194.2247107218
 10
766.189002301
 20
-197.5594429564
 10
772.0929223037
 20
-200.9682888551
 10
778.112113937
 20
-204.4436984405
 10
784.2331323564
 20
-207.9778480407
 10
790.4423377879
 20
-211.5628744977
 10
796.7258691868
 20
-215.1907991292
 10
803.0696916525
 20
-218.8535064314
 10
809.4596596489
 20
-222.5428292528
 10
815.8815222729
 20
-226.2505396703
 10
822.3209285227
 20
-229.9683520222
 10
828.7635379329
 20
-233.6879867969
 10
835.1949573549
 20
-237.4011341206
 10
841.600841055
 20
-241.099511559
 10
847.9668907149
 20
-244.7748641093
 10
854.2789054808
 20
-248.418993101
 10
860.5227793294
 20
-252.0237546713
 10
866.6846275083
 20
-255.5811327736
 10
872.7506416562
 20
-259.0831555122
 10
878.707326879
 20
-262.5220320395
 10
884.5414003341
 20
-265.8900939894
 10
890.2397938642
 20
-269.1797969907
 10
895.7898528781
 20
-272.3838355134
 10
901.1791425736
 20
-275.4950309607
 10
906.3956571907
 20
-278.5064525033
 10
911.4277633757
 20
-281.4113843691
 10
916.2642281706
 20
-284.2033420001
 10
920.8942425549
 20
-286.876085644
 10
925.3075115023
 20
-289.4236723538
 10
929.4941555283
 20
-291.8403991288
 10
933.4448377886
 20
-294.1208763074
 10
937.1507548605
 20
-296.2600222365
 10
940.603624888
 20
-298.2530564244
 10
943.7957534372
 20
-300.0955375623
 10
946.720007154
 20
-301.7833483089
 10
949.3698638136
 20
-303.3127241916
 10
951.7394281255
 20
-304.6802627228
 10
953.8233790502
 20
-305.8828929779
 10
955.6171120443
 20
-306.9179577322
 10
957.1165704738
 20
-307.7831161016
 10
958.3184563477
 20
-308.4764652327
 10
959.2200511943
 20
-308.9964368608
 10
959.8193530384
 20
-309.3418764052
 10
960.1150605959
 20
-309.5120216717
 10
960.1064626388
 20
-309.5065119688
 10
959.7935960456
 20
-309.3253090242
 10
959.1771773127
 20
-308.9688277795
 10
958.2585551392
 20
-308.4379090058
 10
957.0397947208
 20
-307.7336976376
 10
955.5236250659
 20
-306.8577826831
 10
953.713396849
 20
-305.8121120583
 10
951.6131877775
 20
-304.5990047487
 10
949.2276656151
 20
-303.2211933919
 10
946.5621408646
 20
-301.6817208558
 10
943.6225773051
 20
-299.9840558221
 10
940.4155287715
 20
-298.1319832815
 10
936.948160228
 20
-296.1296166954
 10
933.2282056215
 20
-293.9814223342
 10
929.2639468075
 20
-291.6922071007
 10
925.0642556978
 20
-289.2670941984
 10
920.6384888926
 20
-286.7114622934
 10
915.9965298281
 20
-284.0310428488
 10
911.1487255554
 20
-281.2317862861
 10
906.1059078146
 20
-278.3199471502
 10
900.8793192776
 20
-275.3020536926
 10
895.4806240847
 20
-272.1847801184
 10
889.9218656979
 20
-268.9751534179
 10
884.215456364
 20
-265.680291783
 10
878.3741296997
 20
-262.3075658103
 10
872.4109143496
 20
-258.8644798766
 10
866.3391129125
 20
-255.3587329739
 10
860.1722756005
 20
-251.798118329
 10
853.9241686278
 20
-248.1906450733
 10
847.6087320646
 20
-244.5443070681
 10
841.240053495
 20
-240.8672745378
 10
834.832352212
 20
-237.1677146023
 10
828.3999212657
 20
-233.4539342443
 10
821.957111658
 20
-229.7341825896
 10
815.5183060008
 20
-226.016739122
 10
809.0978658329
 20
-222.3099684361
 10
802.7101210828
 20
-218.6220403925
 10
796.3693226535
 20
-214.961310343
 10
790.0896213494
 20
-211.3358263594
 10
783.8850283637
 20
-207.7537809465
 10
777.7693942042
 20
-204.2230669324
 10
771.7563586449
 20
-200.7516440157
 10
765.8593415057
 20
-197.347241425
 10
760.0914991889
 20
-194.0174423327
 10
754.4657029468
 20
-190.7696713092
 10
748.9945108939
 20
-187.6111781659
 10
743.6901200978
 20
-184.5489859586
 10
738.5643799143
 20
-181.5900021167
 10
733.6287218529
 20
-178.7407832676
 10
728.8941582596
 20
-176.0076500726
 10
724.3712574567
 20
-173.3967276275
 10
720.0701057117
 20
-170.9139235076
 10
716.0003032865
 20
-168.5646273864
 10
712.1709354612
 20
-166.3542114262
 10
708.590542241
 20
-164.2875565067
 10
705.2671130877
 20
-162.3692438713
 10
702.2080737494
 20
-160.6036083576
 10
699.4202335762
 20
-158.994574141
 10
696.9098250332
 20
-157.5457079743
 10
694.6824431148
 20
-156.2602937086
 10
692.7430664173
 20
-155.1411254574
 10
691.0960149927
 20
-154.1907570274
 10
689.7449608852
 20
-153.4112768266
 10
688.6929281311
 20
-152.80444779
 10
687.942261149
 20
-152.3716222145
 10
687.494635276
 20
-152.113741758
 10
687.3510514999
 20
-152.0314134897
 10
687.5118153852
 20
-152.1247943065
 10
687.9765897571
 20
-152.3937004337
 10
688.7443262129
 20
-152.8375070605
 10
689.8133072684
 20
-153.4552699976
 10
691.1811516267
 20
-154.2455523166
 10
692.8448141779
 20
-155.2066190123
 10
694.8005859995
 20
-156.3363153405
 10
697.0440838192
 20
-157.6321459091
 10
699.5703132354
 20
-159.0911895045
 10
702.3736371071
 20
-160.7102025174
 10
705.447807164
 20
-162.4855641982
 10
708.7859323965
 20
-164.4133314016
 10
712.3806054959
 20
-166.4891777595
  0
LWPOLYLINE
  5
DC
330
1F
100
AcDbEntity
  8
0
  6
Continuous
 62
     7
370
    25
100
AcDbPolyline
 90
      121
 70
   128
 43
0.0
 10
732.6038540599
 20
-178.1638106539
 10
729.3557228857
 20
-176.288059266
 10
726.3663101411
 20
-174.5616889154
 10
723.6438133881
 20
-172.9893971858
 10
721.1957136923
 20
-171.5755288597
 10
719.0287071344
 20
-170.3239147063
 10
717.1487206147
 20
-169.2380266069
 10
715.5609329275
 20
-168.3208072149
 10
714.2696799297
 20
-167.5747855355
 10
713.2785019565
 20
-167.0020191317
 10
712.5901174798
 20
-166.6040789099
 10
712.2064178393
 20
-166.3820339092
 10
712.1284514379
 20
-166.3365151736
 10
712.3564342782
 20
-166.4676001605
 10
712.8897341575
 20
-166.7750043707
 10
713.7268917411
 20
-167.2578197473
 10
714.8656205626
 20
-167.9147580204
 10
716.3027964866
 20
-168.7439986075
 10
718.0344682463
 20
-169.7433102872
 10
720.0558995895
 20
-170.9098808483
 10
722.361553474
 20
-172.2405938963
 10
724.9451105067
 20
-173.7317231415
 10
727.7994794804
 20
-175.3792426655
 10
730.9168421545
 20
-177.1786155068
 10
734.2886506215
 20
-179.1249138105
 10
737.9056720873
 20
-181.2127838445
 10
741.7579836032
 20
-183.4365402898
 10
745.8350287009
 20
-185.7900772649
 10
750.1256318799
 20
-188.2668949375
 10
754.6180387795
 20
-190.8602687239
 10
759.2999260561
 20
-193.5630359742
 10
764.1584718483
 20
-196.3678435025
 10
769.1803485322
 20
-199.2669487181
 10
774.3517997718
 20
-202.2524587925
 10
779.6586477621
 20
-205.3161279886
 10
785.0863452551
 20
-208.4496067122
 10
790.6200157304
 20
-211.6443186929
 10
796.2444994932
 20
-214.8914693478
 10
801.9443681631
 20
-218.182175816
 10
807.7040036982
 20
-221.5074152467
 10
813.507622104
 20
-224.8580993212
 10
819.3393129451
 20
-228.2249753924
 10
825.1830946633
 20
-231.5988956846
 10
831.0229461879
 20
-234.9705313586
 10
836.8428675215
 20
-238.3307238439
 10
842.6268955452
 20
-241.6702080312
 10
848.3591883124
 20
-244.9798556173
 10
854.0240250486
 20
-248.250559513
 10
859.6058799084
 20
-251.4734224395
 10
865.0894641225
 20
-254.6395379147
 10
870.4597365345
 20
-257.7402701018
 10
875.7019826257
 20
-260.7670986761
 10
880.8018250525
 20
-263.7117465821
 10
885.7452921346
 20
-266.5661465743
 10
890.5188336602
 20
-269.3224625109
 10
895.109378838
 20
-271.9731228166
 10
899.5043204918
 20
-274.5108965241
 10
903.6916309648
 20
-276.9287898606
 10
907.6598199723
 20
-279.2202044218
 10
911.398034701
 20
-281.3788489566
 10
914.8959913197
 20
-283.3988215039
 10
918.1441330307
 20
-285.2745668091
 10
921.1335457753
 20
-287.0009371598
 10
923.8560319915
 20
-288.573234972
 10
926.304142224
 20
-289.9871215503
 10
928.471148782
 20
-291.2387357036
 10
930.3511247649
 20
-292.3246298857
 10
931.9389229888
 20
-293.2418188602
 10
933.2301759866
 20
-293.9878405396
 10
934.2213539598
 20
-294.5606069434
 10
934.9097384365
 20
-294.9585471652
 10
935.293438077
 20
-295.1805921659
 10
935.3714044784
 20
-295.2261352364
 10
935.1434216381
 20
-295.0950259146
 10
934.6101164904
 20
-294.7876490806
 10
933.7729641752
 20
-294.3048063278
 10
932.6342353538
 20
-293.6478680547
 10
931.1970594297
 20
-292.8186274676
 10
929.46538767
 20
-291.8193401227
 10
927.4439510584
 20
-290.6527482681
 10
925.1383024423
 20
-289.3220565137
 10
922.5547454096
 20
-287.8309029336
 10
919.700376436
 20
-286.1833834096
 10
916.5830137618
 20
-284.3840105683
 10
913.2112000265
 20
-282.437715306
 10
909.5941890974
 20
-280.3498391893
 10
905.7418670448
 20
-278.1260888267
 10
901.6648219471
 20
-275.7725761864
 10
897.3742293048
 20
-273.2957524311
 10
892.8818118685
 20
-270.7023847274
 10
888.1999351286
 20
-267.9996113944
 10
883.3413787997
 20
-265.1948099488
 10
878.3195126524
 20
-262.2956986505
 10
873.1480508762
 20
-259.3101946588
 10
867.8412028859
 20
-256.2465011279
 10
862.4135159296
 20
-253.1130163215
 10
856.8798349176
 20
-249.9183104236
 10
851.2553564231
 20
-246.6711567273
 10
845.5554877533
 20
-243.3804502591
 10
839.7958522181
 20
-240.0552108284
 10
833.9922338123
 20
-236.7045510887
 10
828.1605377029
 20
-233.3376537241
 10
822.316761253
 20
-229.9637547254
 10
816.4769097284
 20
-226.5920947165
 10
810.6569883948
 20
-223.2319022312
 10
804.8729603711
 20
-219.8924180439
 10
799.1406623355
 20
-216.582797834
 10
793.4758308677
 20
-213.3120665621
 10
787.8939760079
 20
-210.0892279704
 10
782.4103917938
 20
-206.9230881604
 10
777.0401193819
 20
-203.8223559733
 10
771.7978732907
 20
-200.795527399
 10
766.6980308638
 20
-197.850879493
 10
761.7545637817
 20
-194.9964795008
 10
756.9810117194
 20
-192.2401939817
 10
752.3904770783
 20
-189.5895275934
 10
747.9955354245
 20
-187.0517538858
 10
743.8082144148
 20
-184.6338422972
 10
739.840035944
 20
-182.3424216533
 10
736.1018212153
 20
-180.1837771185
 10
732.6038540599
 20
-178.1638106539
  0
LWPOLYLINE
  5
DD
330
1F
100
AcDbEntity
  8
0
  6
Continuous
 62
     1
370
    25
100
AcDbPolyline
 90
       18
 70
   128
 43
0.0
 10
807.1329165351
 20
-441.4380158272
 10
812.2680194105
 20
-444.5459023547
 10
817.143142085
 20
-447.7903230112
 10
821.7474271354
 20
-451.1640245398
 10
826.0706006087
 20
-454.6594822426
 10
830.1029990229
 20
-458.2689034021
 10
833.8356319283
 20
-461.984226901
 10
837.260184542
 20
-465.7971612391
 10
840.3689914059
 20
-469.6992058231
 10
843.1551219976
 20
-473.6816517264
 10
845.6123780962
 20
-477.7356045001
 10
847.7352516354
 20
-481.8520328337
 10
849.519032705
 20
-486.0217335803
 10
850.9597068175
 20
-490.235418435
 10
852.0540918859
 20
-494.4836713559
 10
852.799727588
 20
-498.7570245979
 10
853.1949491232
 20
-503.0459343821
 10
853.2636010711
 20
-505.7301541466
  0
LWPOLYLINE
  5
DE
330
1F
100
AcDbEntity
  8
0
  6
Continuous
 62
     1
370
    25
100
AcDbPolyline
 90
       51
 70
   128
 43
0.0
 10
538.2635976112
 20
-505.7301541466
 10
538.3981408884
 20
-501.9727701981
 10
538.881080552
 20
-497.6868531094
 10
539.7140919394
 20
-493.418886111
 10
540.8952995158
 20
-489.1783825683
 10
542.4220954449
 20
-484.9748223917
 10
544.2910342218
 20
-480.8175668788
 10
546.4979907238
 20
-476.7159073759
 10
549.0380021595
 20
-472.6789862027
 10
551.9054208511
 20
-468.715817942
 10
555.0938483802
 20
-464.8352422987
 10
558.5961513926
 20
-461.0459149753
 10
562.4045379899
 20
-457.356300069
 10
566.5105037282
 20
-453.7746282528
 10
570.9048750824
 20
-450.3088838496
 10
575.5778627886
 20
-446.9668105352
 10
580.5190266113
 20
-443.7558586844
 10
585.7173443265
 20
-440.6831942098
 10
591.1612247276
 20
-437.7556788887
 10
596.8385040037
 20
-434.979835957
 10
602.7365366185
 20
-432.3618706389
 10
608.8421411451
 20
-429.9076162574
 10
615.1417015173
 20
-427.6225487764
 10
621.6211657124
 20
-425.5117753948
 10
628.2660694587
 20
-423.5799965303
 10
635.0615823341
 20
-421.8315278687
 10
641.9925446438
 20
-420.2702669094
 10
649.0435016654
 20
-418.8997096924
 10
656.1986931118
 20
-417.7228960544
 10
663.4421874741
 20
-416.7424658933
 10
670.7577950943
 20
-415.9605998622
 10
678.1291946051
 20
-415.3790437003
 10
685.5399487358
 20
-414.9990991084
 10
692.9735148482
 20
-414.8216055012
 10
700.4133081575
 20
-414.8469704204
 10
707.8427228053
 20
-415.0751269562
 10
715.2451898119
 20
-415.5055732847
 10
722.6041770759
 20
-416.137348337
 10
729.9032842048
 20
-416.9690317992
 10
737.1262003684
 20
-417.9987866917
 10
744.2568360071
 20
-419.2242955002
 10
751.2792490756
 20
-420.6428392514
 10
758.1777951905
 20
-422.2512382063
 10
764.9370670444
 20
-424.045914208
 10
771.5419786999
 20
-426.0228663513
 10
777.9778051017
 20
-428.1776694613
 10
784.2301833941
 20
-430.5055235161
 10
790.2851497993
 20
-433.0012384395
 10
796.1292054721
 20
-435.659235622
 10
801.7493158409
 20
-438.4735840369
 10
807.1329165351
 20
-441.4380158272
  0
LWPOLYLINE
  5
DF
330
1F
100
AcDbEntity
  8
0
  6
Continuous
 62
     1
370
    25
100
AcDbPolyline
 90
       22
 70
   128
 43
0.0
 10
807.1329165351
 20
-441.4380158272
 10
812.3044132142
 20
-444.4234286582
 10
817.2886330061
 20
-447.3007202352
 10
822.0744866798
 20
-450.0634403282
 10
826.6512682774
 20
-452.7054451995
 10
831.0087769442
 20
-455.2208341128
 10
835.137284661
 20
-457.6039915302
 10
839.0275810242
 20
-459.8496129659
 10
842.6709890513
 20
-461.9526654421
 10
846.0593770348
 20
-463.908455164
 10
849.1851769812
 20
-465.7126503311
 10
852.0414267579
 20
-467.3611959659
 10
854.6217411175
 20
-468.8504188504
 10
856.9203775517
 20
-470.1769925465
 10
858.9321836084
 20
-471.3379799714
 10
860.6526917216
 20
-472.3307543157
 10
862.078050723
 20
-473.1531298343
 10
863.2050785256
 20
-473.8032645028
 10
864.0312673919
 20
-474.27970565
 10
864.5547786656
 20
-474.5813808197
 10
864.7744269666
 20
-474.707625151
 10
864.781918569
 20
-474.7118244741
  0
LWPOLYLINE
  5
E0
330
1F
100
AcDbEntity
  8
0
  6
Continuous
 62
     1
370
    25
100
AcDbPolyline
 90
       48
 70
   128
 43
0.0
 10
591.9839180396
 20
-317.2118310553
 10
591.9956941325
 20
-317.2187936154
 10
592.2325343965
 20
-317.3560832527
 10
592.7731612419
 20
-317.6687959906
 10
593.6164032829
 20
-318.1561955138
 10
594.7603513165
 20
-318.8172171628
 10
596.202468547
 20
-319.6503921186
 10
597.9395337862
 20
-320.6538193685
 10
599.9676585758
 20
-321.8253018308
 10
602.2823371542
 20
-323.1622323318
 10
604.87839863
 20
-324.6615725577
 10
607.7500372748
 20
-326.320018076
 10
610.8908625727
 20
-328.1338842645
 10
614.2938544392
 20
-330.0990835058
 10
617.9514211733
 20
-332.2112620673
 10
621.8554099939
 20
-334.4656845144
 10
625.9970938691
 20
-336.8573264914
 10
630.367253176
 20
-339.3808519035
 10
634.9561177482
 20
-342.0306342183
 10
639.7534511698
 20
-344.8007564614
 10
644.7485586781
 20
-347.685043159
 10
649.9302818948
 20
-350.6770390484
 10
655.2870620469
 20
-353.7700942476
 10
660.8069452343
 20
-356.9573003788
 10
666.477635114
 20
-360.2315453214
 10
672.2864402163
 20
-363.5855071324
 10
678.2204267271
 20
-367.0117240021
 10
684.2663447308
 20
-370.5025273441
 10
690.4107019675
 20
-374.0501452094
 10
696.6397901748
 20
-377.6466627448
 10
702.9397061611
 20
-381.2840343639
 10
709.2964097573
 20
-384.9541658725
 10
715.6956869389
 20
-388.6488566739
 10
722.1232815343
 20
-392.3598819001
 10
728.5648478101
 20
-396.0789224485
 10
735.0059926173
 20
-399.7977170693
 10
741.4323754909
 20
-403.5079498239
 10
747.8296348921
 20
-407.2013413313
 10
754.1835041128
 20
-410.8696426889
 10
760.4797928359
 20
-414.5046978253
 10
766.7044635266
 20
-418.0983659348
 10
772.8436314326
 20
-421.6426309806
 10
778.8835830231
 20
-425.1296001721
 10
784.8108510627
 20
-428.551486473
 10
790.6122093438
 20
-431.9006542279
 10
796.2746963931
 20
-435.169632846
 10
801.7857096446
 20
-438.3511103404
 10
807.1329165351
 20
-441.4380158272
  0
ENDSEC
  0
SECTION
  2
OBJECTS
  0
DICTIONARY
  5
C
330
0
100
AcDbDictionary
281
     1
  3
ACAD_GROUP
350
D
  3
ACAD_LAYOUT
350
1A
  3
ACAD_MLINESTYLE
350
17
  3
ACAD_PLOTSETTINGS
350
19
  3
ACAD_PLOTSTYLENAME
350
E
  3
ACAD_SCALELIST
350
47
  0
DICTIONARY
  5
D
102
{ACAD_REACTORS
330
C
102
}
330
C
100
AcDbDictionary
281
     1
  0
DICTIONARY
  5
1A
102
{ACAD_REACTORS
330
C
102
}
330
C
100
AcDbDictionary
281
     1
  3
Layout1
350
1E
  3
Layout2
350
26
  3
Model
350
22
  0
DICTIONARY
  5
17
102
{ACAD_REACTORS
330
C
102
}
330
C
100
AcDbDictionary
281
     1
  3
Standard
350
18
  0
DICTIONARY
  5
19
102
{ACAD_REACTORS
330
C
102
}
330
C
100
AcDbDictionary
281
     1
  0
ACDBDICTIONARYWDFLT
  5
E
102
{ACAD_REACTORS
330
C
102
}
330
C
100
AcDbDictionary
281
     1
  3
Normal
350
F
100
AcDbDictionaryWithDefault
340
F
  0
DICTIONARY
  5
47
102
{ACAD_REACTORS
330
C
102
}
330
C
100
AcDbDictionary
281
     1
  3
A0
350
48
  3
A1
350
49
  3
A2
350
4A
  3
A3
350
4B
  3
A4
350
4C
  3
A5
350
4D
  3
A6
350
4E
  3
A7
350
4F
  3
A8
350
50
  3
A9
350
51
  3
B0
350
52
  3
B1
350
53
  3
B2
350
54
  3
B3
350
55
  3
B4
350
56
  3
B5
350
57
  3
B6
350
58
  3
B7
350
59
  3
B8
350
5A
  3
B9
350
5B
  3
C0
350
5C
  3
C1
350
5D
  3
C2
350
5E
  3
C3
350
5F
  3
C4
350
60
  3
C5
350
61
  3
C6
350
62
  3
C7
350
63
  3
C8
350
64
  3
C9
350
65
  3
D0
350
66
  3
D1
350
67
  3
D2
350
68
  0
LAYOUT
  5
1E
102
{ACAD_REACTORS
330
1A
102
}
330
1A
100
AcDbPlotSettings
  1

  2
none_device
  4

  6

 40
0.0
 41
0.0
 42
0.0
 43
0.0
 44
0.0
 45
0.0
 46
0.0
 47
0.0
 48
0.0
 49
0.0
140
0.0
141
0.0
142
1.0
143
1.0
 70
   688
 72
     1
 73
     0
 74
     5
  7

 75
    16
147
1.0
148
0.0
149
0.0
100
AcDbLayout
  1
Layout1
 70
     1
 71
     1
 10
0.0
 20
0.0
 11
420.0
 21
297.0
 12
0.0
 22
0.0
 32
0.0
 14
1.0000000000E+20
 24
1.0000000000E+20
 34
1.0000000000E+20
 15
-1.0000000000E+20
 25
-1.0000000000E+20
 35
-1.0000000000E+20
146
0.0
 13
0.0
 23
0.0
 33
0.0
 16
1.0
 26
0.0
 36
0.0
 17
0.0
 27
1.0
 37
0.0
 76
     0
330
1B
  0
LAYOUT
  5
26
102
{ACAD_REACTORS
330
1A
102
}
330
1A
100
AcDbPlotSettings
  1

  2
none_device
  4

  6

 40
0.0
 41
0.0
 42
0.0
 43
0.0
 44
0.0
 45
0.0
 46
0.0
 47
0.0
 48
0.0
 49
0.0
140
0.0
141
0.0
142
1.0
143
1.0
 70
   688
 72
     1
 73
     0
 74
     5
  7

 75
    16
147
1.0
148
0.0
149
0.0
100
AcDbLayout
  1
Layout2
 70
     1
 71
     2
 10
0.0
 20
0.0
 11
0.0
 21
0.0
 12
0.0
 22
0.0
 32
0.0
 14
0.0
 24
0.0
 34
0.0
 15
0.0
 25
0.0
 35
0.0
146
0.0
 13
0.0
 23
0.0
 33
0.0
 16
1.0
 26
0.0
 36
0.0
 17
0.0
 27
1.0
 37
0.0
 76
     0
330
23
  0
LAYOUT
  5
22
102
{ACAD_REACTORS
330
1A
102
}
330
1A
100
AcDbPlotSettings
  1

  2
none_device
  4
Letter_(8.50_x_11.00_Inches)
  6

 40
6.35
 41
6.35
 42
6.35000508
 43
6.35000508
 44
215.9
 45
279.4
 46
0.0
 47
0.0
 48
0.0
 49
0.0
140
0.0
141
0.0
142
1.0
143
1.0
 70
  1712
 72
     1
 73
     0
 74
     0
  7

 75
     0
147
1.0
148
0.0
149
0.0
100
AcDbLayout
  1
Model
 70
     1
 71
     0
 10
0.0
 20
0.0
 11
279.4
 21
215.9
 12
0.0
 22
0.0
 32
0.0
 14
0.0
 24
0.0
 34
0.0
 15
279.4
 25
215.9
 35
0.0
146
0.0
 13
0.0
 23
0.0
 33
0.0
 16
1.0
 26
0.0
 36
0.0
 17
0.0
 27
1.0
 37
0.0
 76
     0
330
1F
331
29
  0
MLINESTYLE
  5
18
102
{ACAD_REACTORS
330
17
102
}
330
17
100
AcDbMlineStyle
  2
Standard
 70
     0
  3

 62
   256
 51
90.0
 52
90.0
 71
     2
 49
0.5
 62
   256
  6
BYLAYER
 49
-0.5
 62
   256
  6
BYLAYER
  0
ACDBPLACEHOLDER
  5
F
102
{ACAD_REACTORS
330
E
102
}
330
E
  0
SCALE
  5
48
102
{ACAD_REACTORS
330
47
102
}
330
47
100
AcDbScale
 70
     0
300
1:1
140
1.0
141
1.0
290
     1
  0
SCALE
  5
49
102
{ACAD_REACTORS
330
47
102
}
330
47
100
AcDbScale
 70
     0
300
1:2
140
1.0
141
2.0
290
     0
  0
SCALE
  5
4A
102
{ACAD_REACTORS
330
47
102
}
330
47
100
AcDbScale
 70
     0
300
1:4
140
1.0
141
4.0
290
     0
  0
SCALE
  5
4B
102
{ACAD_REACTORS
330
47
102
}
330
47
100
AcDbScale
 70
     0
300
1:5
140
1.0
141
5.0
290
     0
  0
SCALE
  5
4C
102
{ACAD_REACTORS
330
47
102
}
330
47
100
AcDbScale
 70
     0
300
1:8
140
1.0
141
8.0
290
     0
  0
SCALE
  5
4D
102
{ACAD_REACTORS
330
47
102
}
330
47
100
AcDbScale
 70
     0
300
1:10
140
1.0
141
10.0
290
     0
  0
SCALE
  5
4E
102
{ACAD_REACTORS
330
47
102
}
330
47
100
AcDbScale
 70
     0
300
1:16
140
1.0
141
16.0
290
     0
  0
SCALE
  5
4F
102
{ACAD_REACTORS
330
47
102
}
330
47
100
AcDbScale
 70
     0
300
1:20
140
1.0
141
20.0
290
     0
  0
SCALE
  5
50
102
{ACAD_REACTORS
330
47
102
}
330
47
100
AcDbScale
 70
     0
300
1:30
140
1.0
141
30.0
290
     0
  0
SCALE
  5
51
102
{ACAD_REACTORS
330
47
102
}
330
47
100
AcDbScale
 70
     0
300
1:40
140
1.0
141
40.0
290
     0
  0
SCALE
  5
52
102
{ACAD_REACTORS
330
47
102
}
330
47
100
AcDbScale
 70
     0
300
1:50
140
1.0
141
50.0
290
     0
  0
SCALE
  5
53
102
{ACAD_REACTORS
330
47
102
}
330
47
100
AcDbScale
 70
     0
300
1:100
140
1.0
141
100.0
290
     0
  0
SCALE
  5
54
102
{ACAD_REACTORS
330
47
102
}
330
47
100
AcDbScale
 70
     0
300
2:1
140
2.0
141
1.0
290
     0
  0
SCALE
  5
55
102
{ACAD_REACTORS
330
47
102
}
330
47
100
AcDbScale
 70
     0
300
4:1
140
4.0
141
1.0
290
     0
  0
SCALE
  5
56
102
{ACAD_REACTORS
330
47
102
}
330
47
100
AcDbScale
 70
     0
300
8:1
140
8.0
141
1.0
290
     0
  0
SCALE
  5
57
102
{ACAD_REACTORS
330
47
102
}
330
47
100
AcDbScale
 70
     0
300
10:1
140
10.0
141
1.0
290
     0
  0
SCALE
  5
58
102
{ACAD_REACTORS
330
47
102
}
330
47
100
AcDbScale
 70
     0
300
100:1
140
100.0
141
1.0
290
     0
  0
SCALE
  5
59
102
{ACAD_REACTORS
330
47
102
}
330
47
100
AcDbScale
 70
     0
300
1/128" = 1'-0"
140
0.0078125
141
12.0
290
     0
  0
SCALE
  5
5A
102
{ACAD_REACTORS
330
47
102
}
330
47
100
AcDbScale
 70
     0
300
1/64" = 1'-0"
140
0.015625
141
12.0
290
     0
  0
SCALE
  5
5B
102
{ACAD_REACTORS
330
47
102
}
330
47
100
AcDbScale
 70
     0
300
1/32" = 1'-0"
140
0.03125
141
12.0
290
     0
  0
SCALE
  5
5C
102
{ACAD_REACTORS
330
47
102
}
330
47
100
AcDbScale
 70
     0
300
1/16" = 1'-0"
140
0.0625
141
12.0
290
     0
  0
SCALE
  5
5D
102
{ACAD_REACTORS
330
47
102
}
330
47
100
AcDbScale
 70
     0
300
3/32" = 1'-0"
140
0.09375
141
12.0
290
     0
  0
SCALE
  5
5E
102
{ACAD_REACTORS
330
47
102
}
330
47
100
AcDbScale
 70
     0
300
1/8" = 1'-0"
140
0.125
141
12.0
290
     0
  0
SCALE
  5
5F
102
{ACAD_REACTORS
330
47
102
}
330
47
100
AcDbScale
 70
     0
300
3/16" = 1'-0"
140
0.1875
141
12.0
290
     0
  0
SCALE
  5
60
102
{ACAD_REACTORS
330
47
102
}
330
47
100
AcDbScale
 70
     0
300
1/4" = 1'-0"
140
0.25
141
12.0
290
     0
  0
SCALE
  5
61
102
{ACAD_REACTORS
330
47
102
}
330
47
100
AcDbScale
 70
     0
300
3/8" = 1'-0"
140
0.375
141
12.0
290
     0
  0
SCALE
  5
62
102
{ACAD_REACTORS
330
47
102
}
330
47
100
AcDbScale
 70
     0
300
1/2" = 1'-0"
140
0.5
141
12.0
290
     0
  0
SCALE
  5
63
102
{ACAD_REACTORS
330
47
102
}
330
47
100
AcDbScale
 70
     0
300
3/4" = 1'-0"
140
0.75
141
12.0
290
     0
  0
SCALE
  5
64
102
{ACAD_REACTORS
330
47
102
}
330
47
100
AcDbScale
 70
     0
300
1" = 1'-0"
140
1.0
141
12.0
290
     0
  0
SCALE
  5
65
102
{ACAD_REACTORS
330
47
102
}
330
47
100
AcDbScale
 70
     0
300
1-1/2" = 1'-0"
140
1.5
141
12.0
290
     0
  0
SCALE
  5
66
102
{ACAD_REACTORS
330
47
102
}
330
47
100
AcDbScale
 70
     0
300
3" = 1'-0"
140
3.0
141
12.0
290
     0
  0
SCALE
  5
67
102
{ACAD_REACTORS
330
47
102
}
330
47
100
AcDbScale
 70
     0
300
6" = 1'-0"
140
6.0
141
12.0
290
     0
  0
SCALE
  5
68
102
{ACAD_REACTORS
330
47
102
}
330
47
100
AcDbScale
 70
     0
300
1'-0" = 1'-0"
140
12.0
141
12.0
290
     0
  0
ENDSEC
  0
EOF
